Song name
# A B C D E F G H I J K L M N O P Q R S T U V W X Y Z

The Shavers - Halvarine tab

The Shavers - Halvarine
Tabbed by: Maickel (The Shabby Harry's)

"-" play to the next note
"--" play few times before going to next note
       |            3x              |
E------|----------------------------|
B------|----------------------------|
G-8--6-|----------------------------|
D-7--7-|----------------------------|
A-6--7-|-------------3-----2-----2--|
E------|-0--5--0--3-----2-----0-----|

E-----------|-----------------|-------------------------------|
B-----------|-----------------|-------------------------------|
G-----------|-----------------|-------------------------------|
D-----------|-----------------|-2----------------5-----4-----4|
A-2-------2-|-5-5-4-4-3-3-2-2-|-0--2-------2--5--3--4--2--2--2|
E-0-3b(4)-0-|-3-3-2-2-1-1-0-0-|----0-3b(4)-0--3-----2-----0---|

|             2x            |      
E---------------------------|
B---------------------------|
E---------------------------|
B---------------------------|
A-------------3-----2-----2-|
E-0--5--0--3-----2-----0----|

E-----------|-----------------|-------------------------------|
B-----------|-----------------|-------------------------------|
G-----------|-----------------|-------------------------------|
D-----------|-----------------|-2----------------5-----4-----4|
A-2-------2-|-5-5-4-4-3-3-2-2-|-0--2-------2--5--3--4--2--2--2|
E-0-3b(4)-0-|-3-3-2-2-1-1-0-0-|----0-3b(4)-0--3-----2-----0---|

E-----|-----------------|-------------------------------|
B-----|-----------------|-------------------------------|
G-----|-----------------|-------------------------------|
D-9-9-|-----------------|-2----------------5-----4-----4|
A-7-7-|-5-5-4-4-3-3-2-2-|-0--2-------2--5--3--4--2--2--2|
E-0-0-|-3-3-2-2-1-1-0-0-|----0-3b(4)-0--3-----2-----0---|

|             3x            |
E---------------------------|
B---------------------------|
E---------------------------|
B---------------------------|
A-------------3-----2-----2-|
E-0--5--0--3-----2-----0----|

E-----------|-----------------|-------------------------------|
B-----------|-----------------|-------------------------------|
G-----------|-----------------|-------------------------------|
D-----------|-----------------|-2----------------5-----4-----4|
A-2-------2-|-5-5-4-4-3-3-2-2-|-0--2-------2--5--3--4--2--2--2|
E-0-3b(4)-0-|-3-3-2-2-1-1-0-0-|----0-3b(4)-0--3-----2-----0---|

E-----|-----------------|-------------------------------|
B-----|-----------------|-------------------------------|
G-----|-----------------|-------------------------------|
D-9-9-|-----------------|-2----------------5-----4-----4|
A-7-7-|-5-5-4-4-3-3-2-2-|-0--2-------2--5--3--4--2--2--2|
E-0-0-|-3-3-2-2-1-1-0-0-|----0-3b(4)-0--3-----2-----0---|

E---------------------------|-------------------------------|
B---------------------------|-------------------------------|
E---------------------------|-------------------------------|
B---------------------------|-------------------------------|
A-------------3-----2-----2-|-------------3-----2-----2-2-2-|
E-0--5--0--3-----2-----0----|-0--5--0--3-----2-----0--0-0-0-|

http://www.theshavers.nl/
Tap to rate this tab
 
# A B C D E F G H I J K L M N O P Q R S T U V W X Y Z