The Sheepdogs - I Dont Know tab

Acoustic Intro

 E       E     D D A     E       E   D   A
------p----0---2-2-0---|------p----0-2---0---------------------|
---0-2/0---0---3-3-2---|---0-2/0---0-3---2---------------------|
---------1-----2-2-2---|---------1---2---2--------repeat-------|
-2-------2---------2---|-2-------2-------2---------------------|
-2---------------------|-2-------------------------------------|
-0---------------------|-0-------------------------------------|

Riff
------------------------|-----------------b----------------------|
----------------7-7-5---|---------------7-/-5--------------------|
-------p----------------|-------p--------------------------------|
---9-11/9----9----------|---9-11/9----9--------------------------|
----------11------------|----------11----------------------------|
-0----------------------|-0--------------------------------------|

 official link = http://www.thesheepdogs.com/
Tap to rate this tab
 
# A B C D E F G H I J K L M N O P Q R S T U V W X Y Z