Song name
# A B C D E F G H I J K L M N O P Q R S T U V W X Y Z

The Sheepdogs - I Dont Know tab

                      I Don't Know- The Sheepdogs (intro)


Guitar1
e------0-2p0---0--22-----------0-2p0---0--2------------------|
b------------2----33-2-(2)-----------2----3--2---------------|
g---1-------------22-2-(2)--1-------------2--2---------------|  Play x2
d---2----------------2-(2)--2----------------2---------------|
a---2----------------0-(0)--2----------------0---------------|
E---0-----------------------0--------------------------------|

guitar2
e----------------------------------------------------------------------|
b----------------------------------------------------------------------|
g------9-11p9----9----7-6v-------9-11p9----9-7--6----------------------|
d-------------11-----------7--------------11---------------------------|
a------------------/5--------------------------------------------------|
E---0------------------------0-----------------------------------------|

v=vibrato
/=slide up
p=pull-off
(#)=hard to hear, something i thought sounded correct
Tap to rate this tab
 
# A B C D E F G H I J K L M N O P Q R S T U V W X Y Z