Song name
# A B C D E F G H I J K L M N O P Q R S T U V W X Y Z

The Sheepdogs - I Dont Get By tab

THE SHEEPDOGS - I DONT GET BY

STANDARD TUNING - Great Song!!!!

MAIN RIFF Gtrs 1 & 2 play together

Gtr.1 (play twice)
  G              F        C            Bb C D
----3------------1--------------------------2-|
----0------------1----------1-1--1-1----3-1-3-|
----0------------2-0h2p0----0-3bp0-0----3-0-2-|
-------------0-3-3--------2-------------3-2-0-|
--2----0-2-3--------------3-------------1-3---|
--3-------------------------------------------|

Gtr.2 (play twice)
  G            F           C      C7   Bb C D
---3-3-3-3-3-3-1-1-1-1-1-1-0-0-0-0-0-0--------|
---3-3-3-3-3-3-1-1-1-1-1-1-1-1-1-1-1-1--3-5-7-|
---0-0-0-0-0-0-2-2-2-2-2-2-0-0-0-0-3-0--3-5-7-|
---------------3-3-3-3-3-3-2-2-2-2-2-2--3-5-7-|
--2------------------------3-3-3-3-3-3--1-3-5-|
--3-------------------------------------------|

Gtr.1 (play twice)
 G              F        F        G
---3---3-3-3-3--1-1-1-1--1-1-1-1--3-3-3-3-----|
---3---3-3-3-3--1-1-1-1--1-1-1-1--3-3-3-3-----|
---0---0-0-0-0--2-2-2-2--2-2-2-2--0-0-0-0-----|
----------------3-3-3-3--3-3-3-3--0-0-0-0-----|
-2---2----------------------------2-2-2-2-----|
-3---3----------------------------3-3-3-3-----|

Gtr.2 (play twice)
 G            F            F             G
--3-----3------1-----1-------1-----1-----7-7-7-7-|
----3-----3------1-----1-------1-----1---8-8-8-8-|
-0----0-----0-2----2-----2-2-----2-----2-7-7-7-7-|
-------------------------------------------------|
-------------------------------------------------|
-------------------------------------------------|

Pedal Steel Guitar arranged for Guitar(Main Riff)
    G     F   C    Bb C  D
--8/10~---8~--8~---6--8--10-|
-10/12~--10~--8~---6--8--10-|
----------------------------|
----------------------------|
----------------------------|
----------------------------|
 G                    F
-------------------------------------------|
----12~----12~----12~----10~----10~----10~-|
-12-----12-----12-----10-----10-----10-----|
-------------------------------------------|
-------------------------------------------|
-------------------------------------------|
 F                    G
-------------------------------------------|
----10~----10~----10~----12~----12~----12~-|
-10-----10-----10-----12-----12-----12-----|
-------------------------------------------|
-------------------------------------------|
-------------------------------------------|

Bridge

Gtr.1 just plays straight chords

Am C Am D

Gtr.2
-0-0-0-0-0-0/8-8-8-8-8-8\0-0-0-5-5-5-5-5-5-5-5-5-|
-1-1-1-1-1-1/8-8-8-8-8-8\1-1-1-5-5-5-7-7-7-7-7-7-|
-2-2-2-2-2-2/9-9-9-9-9-9\2-2-2-5-5-5-7-7-7-7-7-7-|
-2-2-2-2-2-2-------------2-2-2-------------------|
-0-0-0-0-0-0-------------0-0-0-------------------|
-------------------------------------------------|

Gtr.2 cont...
-10-10-10-10-10-10-10-10-10-10-10-10-10-15-15-15-|
-10-10-10-10-10-10-10-10-10-10-10-10-10-10-10-10-|
-11-11-11-11-11-11-11-11-11-11-11-11-11-11-11-11-|
-------------------------------------------------|
-------------------------------------------------|
-------------------------------------------------|

Pedal Steel Guitar (Bridge)
-3/5~-5\3~-------------------10~----|
-3/5~------3/5------------10--------|
-----------3/5-2/5/7/9/11-----------|
------------------------------------|
------------------------------------|
------------------------------------|

Outro:

Gtr 1&2 play main riff for outro

Pedal Slide Guitar (arr. for Gtr) Riffs for Outro
 G           F           C  Bb  C   D
--------------------------------------|
----12h13p12--------------------------|
-12----------14-10-12-10-9------------|
----------------------------8--10--12-|
--------------------------------------|
--------------------------------------|

 G                  F           C      Bb C  D
-------15-15------------------------------------|
-10/12-12-12-12----/10-10-10---/8-8-8-----------|
-10/12-12-12----12-/10-10----10/9-9---9-7-9--11-|
----------------------------------------8-10-12-|
------------------------------------------------|
------------------------------------------------|

Lyrics:

I dont get by
I just sit around wondering why?
Hold my hand
Take me from this land

No need to ride up to the heart of the storm
When you get close you feel your heart has nothing to go on
Cant chase the face, the sound you writes away
I told you too late and now there is nothing to say

I dont get by
I just sit around wondering why?
Hold my hand
Take me from this land

I dont get by
I just sit around wondering why?
Hold my hand
Take me from this land

Dont take it in by the sights you see
You feel the sounds of this world will get the better of me
Acting very strong, like you have no choice
Now you dont you hear me singing to you with a brothers voice


I dont get by
I just sit around wondering why?
Hold my hand
Take me from this land

I dont get by
I just sit around wondering why?
Hold my hand
Take me from this land

I dont get by
I just sit around wondering why?
Hold my hand
Take me from this land

I dont get by
I just sit around getting high
Hold my hand
Take me from this land

I dont get by
I just sit around
Tap to rate this tab
# A B C D E F G H I J K L M N O P Q R S T U V W X Y Z