Song name
# A B C D E F G H I J K L M N O P Q R S T U V W X Y Z

The Sheepdogs - I Dont Know tab

Intro
    E E          D D A  E E          D  A
e|----0--1p0-----2-2-0----0--1p0-----2--0-|
B|----0-----1p0--3-3-2----0-----1p0--3--2-|
G|----1----------2-2-2----1----------2--2-|  X4
D|--2------------0-0-2--2------------0--2-|
A|--2----------------0--2---------------0-|
E|--0-------------------0-----------------|

Basically, the riff and chords above are played for all the verses.

Here's the chorus tab:
    E E          D  D     A
e|----0--1p0-----2--2-----0--|
B|----0-----1p0--3--3-----2--|
G|----1----------2--2-----2--| X3
D|--2------------0--0-----2--|
A|--2---------------------0--|
E|--0------------------------|
                 I  don't know
   E E          D  E
e|---0--1p0-----2----0-|
B|---0-----1p0--3----2-|
G|---1----------2----2-|  X4
D|-2------------0----2-|
A|-2-----------------0-|
E|-0-------------------|
                Tell me

Three "I don't know's" and then one "Tell me".


The solo is in E major AND minor pentatonic - I just improvise when I play.
Tap to rate this tab
# A B C D E F G H I J K L M N O P Q R S T U V W X Y Z