Song name
# A B C D E F G H I J K L M N O P Q R S T U V W X Y Z

The Sheepdogs - Southern Dreaming tab

E|--------------------------------------------------------|
B|--------------------------------------------------------|
G|-14 14p11 14p11--------------11 14----------------------|
D|----------------14p11 11 14-----------------------------|  x4
A|--------------------------------------------------------|
e|--------------------------------------------------------|

|--------------------------------------------------------|
|--------------------------------------------------------|
|-11-----------------------------------------------------|
|----12p9------------------------------------------------|
|----------11h12p11--9-9p7-9p7---------------------------|
|--------------------------------------------------------|

|--------------------------------------------------------|
|--------------------------------------------------------|
|--------------------------------------------------------|
|--------------------------------------------------------|
|---------------12s15-12v--------------------------------|
|---------9v-9------------12p9---------------------------|
|-9-9h12-----------------------9h12p9--9-9p7-9p7---------|
Tap to rate this tab
 
# A B C D E F G H I J K L M N O P Q R S T U V W X Y Z