Song name
# A B C D E F G H I J K L M N O P Q R S T U V W X Y Z

The Sheepdogs - Who tab

-------------------------------------------------------------------------------
                             Who?- The Sheepdogs
-------------------------------------------------------------------------------
Tabbed by: bigdawe
E-mail:

This is my first tab and Im just trying to translate what I see in their videos into a
tab.  Been looking for this tab for awhile now but cant seem to find it anywhere so I
figured Id give it a shot. Please try it and help me out with corrections if possible, 
dont care if my tab is wrong, just want to get it right so I can play this awesome tune 
by a
Canadian band...Thanks!

Tuning: Standard

Verse and chorus (repeats throughout verse & chorus)

e|------8--8------8--8----8--8---8---------------------------------------|
B|----- 8--8------8--8----8--8---8---------------------------------------|
G|------9--9------9--9----9--9---9---------------------------------------|
D|------8- 8------8--8----8--8---8---------------------------------------|
A|------10-12-----10-13---10-12--10--------------------------------------|
E|------8--8------8--8----8--8---8---------------------------------------|

Bridge

e|-------------------------------------------------------------------------|
B|-------------------------------------------------------------------------|
G|-------7-------------2---------------------------------------------------|
D|----6--8--6--5--3--1-3--1--3--5------------------------------------------|
A|----6--8--6--5--3--1-3--1--3--5------------------------------------------|
E|----6--6--6--5--3--1-1--1--3--5------------------------------------------|

Bridge (before 2nd solo)

e|-------------------------------------------------------------------------|
B|-------------------------------------------------------------------------|
G|-------7-------------2-----4---------------------------------------------|
D|----6--8--6--5--3--1-3--1--5---------------------------------------------|
A|----6--8--6--5--3--1-3--1--5---------------------------------------------|
E|----6--6--6--5--3--1-1--1--3---------------------------------------------|

Chorus (2nd guitar- I know he throws this chord in)

e|-----|
B|-7---|
G|-8---|
D|-9---|
A|-9---|
E|-----|


Thereís also a 2nd guitar part that I havenít figured out yet and a couple of soloís...I
will try to figure these out and hopefully someone out there in the guitar world can
help as well.
Tap to rate this tab
# A B C D E F G H I J K L M N O P Q R S T U V W X Y Z