Song name
# A B C D E F G H I J K L M N O P Q R S T U V W X Y Z

The Sheepdogs - Feeling Good tab

EAT ACID                Feeling Good
SEE GOD                 The Sheepdogs
FREE MARC EMERY!        By: Jimmy&Tron          
                      
                      

Intro:
E|-------------------------------|
B|-------------------------------|
G|-------------------------------|
D|-------------------------------|
A|-------------------------------|
E|-3---3-3-3-6-6-3---3-3-3-6-6-3-|

Verse:
    C G G   Bb F F
E|--8-7-7----6-5-5--|
B|--8-8-8----6-6-6--|
G|--9-7-7----7-5-5--|
D|------------------|
A|------------------|
E|------------------|

Chorus:             Last Time:
   C G G   Bb F F   BbBb   C C  BbBb   C C              
E|-----------------|------------------------|
B|-----------------|------------------------|
G|-5--------3------|-3-3-x-5-5-x-3-3-x-5-5--|
D|-5-5-5----3-3-3--|-3-3-x-5-5-x-3-3-x-5-5--|
A|-3-5-5----1-3-3--|-1-1-x-3-3-x-1-1-x-3-3--|
E|---3-3------1-1--|------------------------|

Riff:
E|-----------------------------|
B|-----------------------------|
G|-----------------------------|
D|--------5-3-5------3---------|
A|---------------3h5---3-1-3-1-|
E|-3-1-3-3---------------------|

       
Tap to rate this tab
# A B C D E F G H I J K L M N O P Q R S T U V W X Y Z