Song name
# A B C D E F G H I J K L M N O P Q R S T U V W X Y Z

The Sheepdogs - How Late How Long tab

-----------------------------------------------------------------
How Late, How Long - The Sheepdogs
-----------------------------------------------------------------
Tabbed by: DaleMac
Email: dalemac@gmail.com
Tuning: Standard


Intro: A-G-D-Fill
(When going from G to D just strum the top 3 strings of the G and then go to the D)
Fill Part-
Guitar 1

E|---------------------------------------------------------------|
B|---------------------------------------------------------------|
G|---------2p0---------------------------------------------------|
D|--------------4p0-5p0-4p0-2------------------------------------|
A|---2h3h4----------------------4--------------------------------|
E|---------------------------------------------------------------|

Guitar 2

E|---------------------------------------------------------------|
B|-----------10--------------------------------------------------|
G|--------------11p9-12p9-11p9-9---------------------------------|
D|---9h10h11---------------------11------------------------------|
A|---------------------------------------------------------------|
E|---------------------------------------------------------------|

Verse:
A                 G D
How Late, How Long
A                  G D
Singin' your song?
A             G D
Stormy weather
A                  G D
When we're together



And When I stay up late...
E|-----------------------------------------------0---0-------------|
B|-----------------------------------------------0---0-------------|
G|-----------------------------------------------1---4-------------|
D|-------7-7---7-7-----------5--5----------------2---5-------------|
A|-----------------------------------------------2---5-------------|
E|----5------5------5--3--3---------3--2--1--0---0---3-------------|
Tap to rate this tab
 
# A B C D E F G H I J K L M N O P Q R S T U V W X Y Z