Song name
# A B C D E F G H I J K L M N O P Q R S T U V W X Y Z

The Sheer - Girl That Lost Her Mind tab

Highlighted       Show chord diagrams
Chords used:
C     	(x32010)
E7    	(020100)
Am  	(x02010)
Fmaj7 	(x33210)
Em    	(022000)
Bb9  	(x10110)
G7    	(320031)
Am7	(302210)
Am/F#	(202210)
Dm    	(xx0321)
C9	(x32330)
E5 	(022xxx)
F5	(133xxx)
G	(320033)

Chords with * means, play following riff in the chord:
e|-0---0-0--0-|
b|-1---1-0--1-|

-->Intro: C

-->Verse:
C
 Shes the girl with the jewel eyes
          E7
And she knows just what theyre worth
      Am
She walks around like she owns this town
         Fmaj7
But its not okay
     E7
it's not okay

C
 I know shes got it, I know shes got it
        E7
But it makes me angry, makes me angry
    Am
To see her like that
          Fmaj7
And its not okay
      E7
Its not okay
      C                C*
And ooooh

--> Chorus:
 Em           Am*
She's got it made
 Em           Bb9*
She's got it made
       Fmaj7
I'm telling the story about
     G7                 C
The girl that lost her mind

-->[verse 2]

-->[chorus]2x

--> Bridge:
        Dm      Am
She used to be,
Bb9       C9
just like me.
E5			E5			E5 F5
    Now shes lonely,             now shes lonely,
         Dm        		                  C
She used to see your friends everytime shed got the change,
                G
She used it, could be so cool.
         Dm			     C
She thinks shes got it made but a love of escarade,
     E7					C                  C*
Oh oh, who asked the girl that used to know?

-->[Chorus] 2x

--> Outro:
Well she lost her mind

| Em | Am Am7 Am/F#  Em |
g|--------------------------------------|
d|----------0-2-0-----------------------|
a|----0h2---------2---0-----------------|
e|-0------------------------3---2---0---|

| Em | Bb9 |
g|---------------------------------------|
d|----------0-2-0------------------------|
a|----0h2---------2---/5-/5-3-5-3-3------|
e|-0-------------------------------------|

| Dm G7 | C* |

| Em | Am Am7 Am/F#  Em |
g|--------------------------------------|
d|----------0-2-0-----------------------|
a|----0h2---------2---0-----------------|
e|-0------------------------3---2---0---|

| Em | Bb9 |
g|---------------------------------------|
d|----------0-2-0------------------------|
a|----0h2---------2---/5-/5-3-5-3-3------|
e|-0-------------------------------------|

| Dm G7 | C |

Ends on a C
Tap to rate this tab
# A B C D E F G H I J K L M N O P Q R S T U V W X Y Z