Song name
# A B C D E F G H I J K L M N O P Q R S T U V W X Y Z

The Shivas - No Waves tab

E--------------------------------------------------------------------------|
B----------------------13--------------------------------------------------|
G--------------13---15----15--13----That riff times 2----------------------|
D--13---13-13--------------------------------------------------------------|
A--------------------------------------------------------------------------|
E--------------------------------------------------------------------------|

E---4-----------------------------------------------------------------------|
B---4-----------------------------------------------------------------------|
G---5---up and down strumming pattern on that chord----8--------------------|
D---6--------------------------------------------------8---same pattern-----|
A---6--------------------------------------------------6--------------------|
E---4-----------------------------------------------------------------------|


http://www.theshivas.com/
Tap to rate this tab
 
# A B C D E F G H I J K L M N O P Q R S T U V W X Y Z