Song name
# A B C D E F G H I J K L M N O P Q R S T U V W X Y Z

The Shoes - Time To Dance tab

-------------------------------------------------------------------------------
                             Time to Dance - The Shoes
-------------------------------------------------------------------------------
Tabbed by: Slevadon
E-mail: kmminnick@gmail.com

Tuning: Standard

This song isn't guitar oriented, but it's badass and easy

Lyrics below

Verse

  (  A    D  ) -= Repeat basically the whole song

e|--5------5---------------------------------------------------------------------|
B|--5------7---------------------------------------------------------------------|
G|--6------7---------------------------------------------------------------------|
D|--7------7---------------------------------------------------------------------|
A|--7------5---------------------------------------------------------------------|
E|--5----------------------------------------------------------------------------|

Bridge (Repeat once)

e|-----------------------------------------------------------------------------|
B|-----------------------------------------------------------------------------|
G|-----------------------------------------------------------------------------|
D|--------------------------------------------------  4------------------------|
A|--8-----------------------4-------8-----8---------- 4------------------------|
E|-----6--6--2--3--3--2--1-----6-------6-----6--2--3--2------------------------|

Solo (Repeat every note very quickly)

e|-------------------------------------3----------------------------------------|
B|--3--5------3--5-----1-----5--3--5-----5--3-----------------------------------|
G|--------2---------2-----2-----------------------------------------------------|
D|------------------------------------------------------------------------------|
A|------------------------------------------------------------------------------|
E|------------------------------------------------------------------------------|

Lyrics

Hey brother get up check the wings
Do what I do it's what I feel
Up to the sun, It won' t be long
And now it's time for you to run
Amen it's time to dance

Hey sister come on kick the world
The world is yours, up to you girl
It was so fun you feel so strong
And now it's time for you to burn
Amen it's time to dance

T-I-M-E-T-O-D-A-N-C-E in the city

Hey brother get up check the wings
check the wings
Do what I do it's what I feel
it's what I feel
Keep on walking on the way
ways of the lord
Amen It's time to dance.

WEBSITE: http://www.myspace.com/the.shoesmusic
Tap to rate this tab
# A B C D E F G H I J K L M N O P Q R S T U V W X Y Z