Song name
# A B C D E F G H I J K L M N O P Q R S T U V W X Y Z

The Showdown - It Drinks From Me tab

It Drinks From Me by The Showdown

e--------------------------------------------------------------------------|
B--------------------------------------------------------------------------|
G--------------------------------------------------------------------------|
D---------------------------------3p0-------------------------------0h3h5--|
A-3h5-5-5--3-55-5--3h5-5-5--3\2p0----------3h5-5-5--3-55-5--3h5-5-5--------|
D-------------------------------------3p2----------------------------------|
continued from above
e----------|
B----------|
G----------| repeated through verse
D----------|
A-3\2------|
D-----3p0--|

CHORUS                              x2
e------------------------------------|
B------------------------------------|
G-5/7-777------------5/7-777---------|
D-5/7-777-3-5-3-5-3--5/7-777-3-5-3-0-|
A-3/5-555-3-5-3-5-3--3/5-555-3-5-3-0-|
D---------3-5-3-5-3----------3-5-3-0-|

1.40
e-------------|
B-------------|
G-7-----7-----| strum these 
D-7--5--7--3--|
A-5--5--5--3--|
D----5-----3--|

2.10
e----------------|
B----------------|
G----------------|
D----------------|
A-3-5--3-5-3-5-3-|
D------3-5-3-5-3-|

e-------------|
B-------------|
G-------------|
D-----3-5-5b--|
A-3-5---------|
D-------------|

Any corrections please comment
Thanks
Tap to rate this tab
 
# A B C D E F G H I J K L M N O P Q R S T U V W X Y Z