Song name
# A B C D E F G H I J K L M N O P Q R S T U V W X Y Z

The Showdown - We Die Young tab

-------------------------------------------------------------------------------
			     WE DIE YOUNG - The Showdown
-------------------------------------------------------------------------------
Tabbed by:Evan(myspace.com/sgtfooblegash)

I am sure this tab is 100% right. the timing is off, just listen to the song to get it.




Tuning: 

Guitar I(Rhythm I)-Drop D ( D-A-D-G-B-e)
Guitar II(Rhythm II)-Drop D ( D-A-D-G-B-e)
Guitar III(Lead I)-Drop D ( D-A-D-G-B-e)
Guitar IV(Lead II)-Drop D ( D-A-D-G-B-e)

Intro:

Guitar I:
e|---------------------------------------------------------------------------|
B|---------------------------------------------------------------------------|
G|---------------------------------------------------------------------------|x2
D|5-----------------5--------------------------------------------------------|
A|5-----------------5--------------------------------------------------------|
D|5-----------------5--------------------------------------------------------|

Guitar II:
e|---------------------------------------------------------------------------|
B|---------------------------------------------------------------------------|
G|---------------------------------------------------------------------------|x2
D|5--878--33--3-5---5--878--33-3-5-------------------------------------------|
A|5--------------5--5-------------5------------------------------------------|
D|5-----------------5--------------------------------------------------------|


Verse:


Both Guitar I and Guitar II:

e|---------------------------------------------------------------------------|
B|---------------------------------------------------------------------------|
G|---------------------------------------------------------------------------|
D|5-------------------------------1--3---------------------------------------|
A|5-------------------------------1--3---------------------------------------|
D|555555555555-0-3-5-555555555555-1--3--5555555555555-0-3-5555555555555-5-7-8|
  ............       ............       .............     .............
e|---------------------------------------------------------------------------|
B|---------------------------------------------------------------------------|
G|---------------------------------------------------------------------------|
D|1--3-----------------------------------------------------------------------|
A|1--3-----------------------------------------------------------------------|
D|1--3-----------------------------------------------------------------------|

Chorus(play as many times as needed):

Both I and II:

e|---------------------------------------------------------------------------|
B|---------------------------------------------------------------------------|
G|---------------------------------------------------------------------------|X
D|5-8-1x1x1x1x1-1----1-5-3x3x3x3---------------------------------------------|
A|5-8-1x1x1x1x1-1----1-5-3x3x3x3---------------------------------------------|
D|5-8-1x1x1x1x1-1----1-5-3x3x3x3--578----------------------------------------|


Chorus Lead(not sure if its 100%):

Guitar III:

e|---------------------------------------------------------------------------|
B|----8--11--4-4-6-8-6-4---4---8-6-6x6x--6-8--10-----------------------------|
G|---------------------------------------------------------------------------|
D|---------------------------------------------------------------------------|
A|---------------------------------------------------------------------------|
D|---------------------------------------------------------------------------|


Verse II:


Both Guitar I and Guitar II:

e|---------------------------------------------------------------------------|
B|---------------------------------------------------------------------------|
G|---------------------------------------------------------------------------|
D|5-------------------------------1----3-------------------------------------|
A|5-------------------------------1----3-------------------------------------|
D|555555555555-0-3-5-555555555555-1----35555555555555-0-3-5555555555555-5-7-8|
  ............       ............       .............     .............
e|---------------------------------------------------------------------------|
B|---------------------------------------------------------------------------|
G|---------------------------------------------------------------------------|
D|1----3---------------------------------------------------------------------|
A|1----3---------------------------------------------------------------------|
D|1----3---------------------------------------------------------------------|


Chorus 

then 

Bridge(play as long as needed):


Guitar I:
e|---------------------------------------------------------------------------|
B|---------------------------------------------------------------------------|
G|----777-555----------------------------------------------------------------|
D|------------888-777-555-333-555-888-1010---777-----------------------------|
A|---------------------------------------------------------------------------|
D|---------------------------------------------------------------------------|
pm    ... ... ... ... ... ... ... ... ....   ...

Solo:

Guitar III:
e|------------------------------------------15-------------------------------|
B|---6--6/8--8-8-8\6--8~---8/10-10\8-8---15b---15b-13-15-16-15-13-11-10-8-7--|
G|---------------------------------------------------------------------------|
D|---------------------------------------------------------------------------|
A|---------------------------------------------------------------------------|
D|---------------------------------------------------------------------------|
                                                          
e|-----15-----15------15------15------15---------15-----15-----15-----15-----|
B|---16-----16-----16------16------16---------15-----15------15-----15-------|
G|-17----17------17------17------17------17-15-----15------15-----15---------|
D|---------------------------------------------------------------------------|
A|---------------------------------------------------------------------------|
D|---------------------------------------------------------------------------|

e|-----15-----------------13-------------------------------------------------|
B|---15---------15-----13b---13b---------------------------------------------|
G|-15----15-15b----15b-------------------------------------------------------|
D|---------------------------------------------------------------------------|
A|---------------------------------------------------------------------------|
D|---------------------------------------------------------------------------|
then
Guitar IV:

e|-------------------------------15------------------------------------------|
B|-------------------------------18b--------------------11--15p13p11---------|
G|---------------------------------------12-00-10-00-8b----------------------|
D|---------------------------------------------------------------------------|
A|---------------------------------------------------------------------------|
D|---------------------------------------------------------------------------|

e|---------------------------------------------------------------------------|
B|-15p13p11--13p11p10-13p11p10-----6-----------------------------------------|
G|-------------------------------------8p7p5--7p5p3-5p3p2--3p2---------------|
D|------------------------------------------------------------3--------------|
A|---------------------------------------------------------------------------|
D|---------------------------------------------------------------------------|

e|---------------------------------------------------------------------------|
B|----------------------------------8----------------11-15p11-15p11-13-11----|
G|-----------357-785--5--7--3------8-8-7-8---5(AH)---------------------------|
D|-----357357----------------------------------------------------------------|
A|--356----------------------------------------------------------------------|
D|---------------------------------------------------------------------------|

e|-----------------10-11-13-10-11-13-15--------------------------------------|
B|-15p11-15p11-13-----------------------------------------------------------6|
G|---------------------------------------8p7p5h7h8--10p8p7h8h10--15-15-14----|
D|---------------------------------------------------------------------------|
A|---------------------------------------------------------------------------|
D|---------------------------------------------------------------------------|

Then

Bridge
Chorus
Chorus Lead



Tap to rate this tab
# A B C D E F G H I J K L M N O P Q R S T U V W X Y Z