Song name
# A B C D E F G H I J K L M N O P Q R S T U V W X Y Z

The Showdown - Titanomachy - The Beginning tab

i'm not sure if this is 100% right but i played around a little and i think this is how 
played

obviously you need to listen to the song to be able to go with the rhythem and speed

Drop D

(0:24)(0:32)(0:39)
e---------------------------------------------------------------------------|
B---------------------------------------------------------------------------|
G---------------------------------------------------------------------------|
D---0---0----5s0------------------------------------------------------------|
A---0---0----5s0-000-00-00-000-000-00-00-000-000-00-00-000-000-00-00-000----|
D---0---0----5s0-000-00-00-000-000-00-00-000-000-00-00-000-000-00-00-000----|
                 xxx xx xx xxx xxx xx xx xxx xxx xx xx xxx xxx xx xx xxx

                                                       (0:55)
e---------------------------------------------------------------------------|
B---------------------------------------------------------------------------|
G---------------------------------------------------------------------------|
D----------------------------------------------------------5----------------|
A-000-00-00-000-000-00-00-000-000-00-00-000-000-00-00-000--5--000-00-00-000-|
D-000-00-00-000-000-00-00-000-000-00-00-000-000-00-00-000--5--000-00-00-000-|
  xxx xx xx xxx xxx xx xx xxx xxx xx xx xxx xxx xx xx xxx   xxx xx xx xxx

e---------------------------------------------------------------------------|
B---------------------------------------------------------------------------|
G---------------------------------------------------------------------------|
D---------------------------------------------------------------------------|
A-000-00-00-000-000-00-00-000-000-00-00-000-000-00-00-000-000-00-00-000-----|
D-000-00-00-000-000-00-00-000-000-00-00-000-000-00-00-000-000-00-00-000-----|
  xxx xx xx xxx xxx xx xx xxx xxx xx xx xxx xxx xx xx xxx xxx xx xx xxx

                             (1:11)       (1:19)
e---------------------------------------------------------------------------|
B---------------------------------------------------------------------------|
G---------------------------------------------------------------------------|
D------------------------------5-0----------0-0-2-4-3-2-1-0-----------------|
A-000-00-00-000-000-00-00-000--5-0----------0-0-2-4-3-2-1-0--000-00---------|
D-000-00-00-000-000-00-00-000--5-0----------0-0-2-4-3-2-1-0--000-00---------|
  xxx xx xx xxx xxx xx xx xxx                                xxx xx

   (1:23)
e---------------------------------------------------------------------------|
B---------------------------------------------------------------------------|
G---------------------------------------------------------------------------|
D-0-0-2-4-3-2-1--0-----0-0-2-4-3-2-1-0--------0-0-2-4-3-2-1--1s^------------|
A-0-0-2-4-3-2-1--0-0-0-0-0-2-4-3-2-1-0-000-00-0-0-2-4-3-2-1--1s^------------|
D-0-0-2-4-3-2-1--0-0-0-0-0-2-4-3-2-1-0-000-00-0-0-2-4-3-2-1--1s^------------|
                   x x                 xxx xx

most definitly don't know the solo...

x-palm mute
s^-slide up

first real tab that took time
shlet me know how i did

chumpypig15@yahoo.com

Git Snake Bit!

Rock on for Jesus!
Tap to rate this tab
# A B C D E F G H I J K L M N O P Q R S T U V W X Y Z