Song name
# A B C D E F G H I J K L M N O P Q R S T U V W X Y Z

The Showdown - Prometheus tab

hey, here's a slightly different version of the intro to Prometheus: the fires of 
by the showdown.

tuning: drop d
h=hammer on
p=pull off
/=slide up
\=slide down

e|------------------------------------------------------------|
b|------------------------------------------------------------|
g|-------------------------------------------------12p10------|
d|-10h12-0-0-0-0-0-0-0-0-0-0-10h12-0-0-0-0-12p10p0-------10---|
a|------------------------------------------------------------|
d|------------------------------------------------------------|

e|------------------------------------------------------------|
b|------------------------------------------------------------|
g|------------------------------------------------------------|
d|-10h12-0-0-0-0-0-0-0-0-0-0-3p0-0-0-0-0-15p0-17p0-18p17p15p0-|
a|------------------------------------------------------------|
d|------------------------------------------------------------|

you can repeat the intro for the verse, then:

e|------------------------------------------------------------|
b|------------------------------------------------------------|
g|------------------------------------------------------------|
d|--000-7---7/15-7p0-6---/12\---------------------------------|
a|--000-7---7/15-7p0-6---/12\---------------------------------|
d|--000-7---7/15-7p0-6---/12\---------------------------------|

e|------------------------------------------------------------|
b|------------------------------------------------------------|
g|------------------------------------------------------------|
d|--0-0-0-0-0-0-0-0-0-0-0-0------------------6-3-9-7----------|
a|--0-0-0-0-0-0-0-0-0-0-0-0------------------6-3-9-7----------|
d|--0-0-0-0-0-0-0-0-0-0-0-0------------------6-3-9-7----------|
just chug open rhythm for a while until this ^

and the chorus:
e|------------------------------------------------------------|
b|------------------------------------------------------------|
g|------------------------------------------------------------|
d|--0-0-3-0-6-0-5p0--0-3-0-6-0-5--0-3-0-9-0-5-0-0-3-0---------|
a|--0-0-3-0-6-0-5p0--0-3-0-6-0-5--0-3-0-9-0-5-0-0-3-0---------|
d|--0-0-3-0-6-0-5p0--0-3-0-6-0-5--0-3-0-9-0-5-0-0-3-0---------|

and honestly i have absolutely no clue how to play that solo.

e|------------------------------------------------------------|
b|------------------------------------------------------------|
g|------------------------------------------------------------|
d|--0-0-3/12--0-0-3/11--0-0-3/10--0-0-3/7--0-7p6-0-6p5--------|
a|--0-0-3/12--0-0-3/11--0-0-3/10--0-0-3/7--0-7p6-0-6p5--------|
d|--0-0-3/12--0-0-3/11--0-0-3/10--0-0-3/7--0-7p6-0-6p5--------|

e|------------------------------------------------------------|
b|------------------------------------------------------------|
g|------------------------------------------------------------|
d|--0-0-3/12-0-12p11-0-11p10--0-0-3/7--0-7p6-0-6p5------------|
a|--0-0-3/12-0-12p11-0-11p10--0-0-3/7--0-7p6-0-6p5------------|
d|--0-0-3/12-0-12p11-0-11p10--0-0-3/7--0-7p6-0-6p5------------|

I honestly have no clue how to play this ridiculous solo either :)

listen to the song to figure out the order of the chunks, i'm too lazy to list it here. :P
Tap to rate this tab
# A B C D E F G H I J K L M N O P Q R S T U V W X Y Z