Song name
# A B C D E F G H I J K L M N O P Q R S T U V W X Y Z

The Showdown - The Man Named Hell tab

Intro (Climb in from the motorcycle part)
e ---------------------------------------------------------------------|
B ------------------------------------------------2~~------------------|
G ------------------------------------------------3~~------------------|
D ------------------------------------------------0~~------------------|
A -----00--30--50-------00-30--50--(repeat until)-0~~------------------|
D -000-00-0--30--30-000-00---30--30---------------0~~------------------|
   ***    ********* ***    ********

Intro B
e -----------------------------------------|
B -----------------------------------------|
G -----------------------------------------|
D --------------------------5h6p5-5--------|
A -----00--30--50-------00-------7-75------|
D -000-00-0--30--30-000-00-0----------3----|
   ***    *         ***    *


e --------------------------------------------|
B --------------------------------------------|
G --------------------------------------------|
D ---------------------------3~4~3~-----------|
A -----00--30--50-------00---3~4~3~-----------|
D -000-00-0--30--30-000-00-0-3~4~3~-----------|
   ***    *         ***    *

e -----------------------------------------|
B -----------------------------------------|
G -----------------------------------------|
D --------------------------5h6p5-5--------|
A -----00--30--50-------00-------7-75------|
D -000-00-0--30--30-000-00-0----------3----|
   ***    *         ***    *


e --------------------------------------------|
B --------------------------------------------|
G --------------------------------------------|
D ---------------------------3~4~3~-----------|
A -----00--30--50-------00---3~4~3~-----------|
D -000-00-0--30--30-000-00-0-3~4~3~-----------|
   ***    *         ***    *

Verse
e ------------------------------------------|
B ------------------------------------------|
G ------------------------------------------|
D -0000-0-0-0000--0000-0-0-00001------------|
A -0000-0-0-0000--0000-0-0-00001------------|
D -0000-0-0-0000--0000-0-0-00001------------|
   **** * * ****  **** * * ****

e -----------------------------------------|
B -----------------------------------------|
G -----------------------------------------|
D -0000-0-0-0000--0000-0-0-3~4~3~----------|
A -0000-0-0-0000--0000-0-0-3~4~3~----------|
D -0000-0-0-0000--0000-0-0-3~4~3~----------|
   **** * * ****  **** * *


e ------------------------------------------|
B ------------------------------------------|
G ------------------------------------------|
D -0000-0-0-0000--0000-0-0-00001------------|
A -0000-0-0-0000--0000-0-0-00001------------|
D -0000-0-0-0000--0000-0-0-00001------------|
   **** * * ****  **** * * ****

e -----------------------------------------|
B -----------------------------------------|
G -----------------------------------------|
D -0000-0-0-0000--0000-0-0-3~4~3~----------|
A -0000-0-0-0000--0000-0-0-3~4~3~----------|
D -0000-0-0-0000--0000-0-0-3~4~3~----------|
   **** * * ****  **** * *

Pre-Chorus
e -------------------------------------------------|
B -------------------------------------------------|
G -------------------------------------------------|
D -0000-12\------------------12\-------------------|
A -0000-12\------------------12\-------------------|
D -0000-12\-03~03~03~00-0000-12\-03~03~03~-00------|
   ****     *  *  *^ ** ****     *  *  *^  **

e -------------------------------------------------|
B -------------------------------------------------|
G -------------------------------------------------|
D -0000-12\------------------12\-------------------|
A -0000-12\------------------12\-------------------|
D -0000-12\-03~03~03~00-0000-12\-03~03~03~-00------|
   ****     *  *  *^ ** ****     *  *  *^  **

Chorus
e ---------------------------------------------------------|
B ---------------------------------------------------------|
G ---------------------------------------------------------|
D -000-000-00-5/7-----3-3-3p0-0-00-5/7-----33333p0-0-------|
A -000-000-00-3/5-----3-3-3p0-0-00-3/5-----33333p0-0-------|
D -000-000-00----6\5~-3-3-3p0-0-00----6\5~-33333p0-0-------|
   **  **  **                   **

e -----------------------------------------------|
B -----------------------------------------------|
G -----------------------------------------------|
D -00-5/7-----3-3-3p0-0-00-5/7-----33333p0-0-----|
A -00-3/5-----3-3-3p0-0-00-3/5-----33333p0-0-----|
D -00----6\5~-3-3-3p0-0-00----6\5~-33333p0-0-----|
   **                   **

Verse again
Chorus

Also, I don't know the solo. Just the rhythm part, which is...
e ----------------------------|
B ----------------------------|
G ----------------------------|
D -0~~35~~36~~50~~------------| Play this 4 times
A -0~~35~~36~~50~~------------|
D -0~~35~~36~~50~~------------|
      *   *   *

Then intro part B

Outro
e -----------------------------|
B -----------------------------|
G -----------------------------|
D -00-00-00--65----------------| Play 6 times and then...
A -00-00-00-565----------------|
D -00-00-00--65----------------|
   ** ** **

e -----------------------------------|
B -----------------------------------|
G -----------------------------------|
D -33-33-22-22-1--1--0~~~------------|
A -33-33-22-22-1--1--0~~~------------|
D -33-33-22-22-1--1--0~~~------------|
   ** ** ** ** *  *

Legend
*= Palm mutes
^= Pinch harmonics
p= pull off
h= hammer on
\= downward slide
/= upward slide
~= let it ring/vibrato as needed
Tap to rate this tab
# A B C D E F G H I J K L M N O P Q R S T U V W X Y Z