Song name
# A B C D E F G H I J K L M N O P Q R S T U V W X Y Z

The Showdown - Temptation Come My Way tab

-------------------------------------------------------------------------------
Temptation Come My Way - The Showdown
-------------------------------------------------------------------------------


Tuning:Drop D

e|-----------------------------------------------------------|
B|-----------------------------------------------------------|
G|-----------------------------------------------------------|2xCrunchy
D|-----------------------------------------------------------|4xDistortion
A|--------------3-5~-------------3-5-------------------------|
D|---0--0-3-5-6-------0--0-3-5-6-----6-5~--------------------|

intro solo:
e|----------------------------------------------------------------|
B|----------------------------------------------------------------|
G|-------------------------(10)~----------------------------------|
D|-----(7~)---/10h12-10h12--------(10)~---------------------------|
A|----------------------------------------------------------------|
D|----------------------------------------------------------------|
        *   |use a whammy bar on the notes with parentheses, listen to the                    
            |song to figure out what to do.
            --------------------------------
Verse:
e|-----------------------------------------------------------------------|
B|-----------------------------------------------------------------------|
G|-----------------------------------------------------------------------|
D|---0--0-3-0-5-0-0---0-3-0-/6-5-3-0-------------------------------------|
A|---0--0-3-0-5-0-0---0-3-0-/6-5-3-0-------------------------------------|
D|---0--0-3-0-5-0-0---0-3-0-/6-5-3-0-------------------------------------|

e|-----------------------------------------------------------------------|
B|-----------------------------------------------------------------------|
G|-----------------------------------------------------------------------|
D|-0-3-0-5-0-/6-5-3h5-3h5-3h6-0------------------------------------------|
A|-0-3-0-5-0-/6-5-3h5-3h5-3h6-0------------------------------------------|
D|-0-3-0-5-0-/6-5-3h5-3h5-3h6-0------------------------------------------|

e|--------------------------------------------------------------------|
B|--------------------------------------------------------------------|
G|--------------------------------------------------------------------|
D|--0-3-0-5-0-0---0-3-0-/6-5-3-0---0-3-0-5-0--0--------------------3--|
A|--0-3-0-5-0-0---0-3-0-/6-5-3-0---0-3-0-5-0--0------------------5----|
D|--0-3-0-5-0-0---0-3-0-/6-5-3-0---0-3-0-5-0--0--6-5-3-0-3-5-0-5------|
                                                 . . . . . . . .
Play the whole verse twice then chorus
Chorus:
e|-----------------------------------------------|
B|-----------------------------------------------|
G|-----------------------------------------------|4x
D|--0--0-/5-3-0-/6-5-0-/8-7--0-3-5-3-0-----------|
A|--0--0-/5-3-0-/6-5-0-/8-7--0-3-5-3-0-----------|
D|--0--0-/5-3-0-/6-5-0-/8-7--0-3-5-3-0-----------|
                           ^^^^^^^^^skip that on 4th time
Solo: 
e|--------------------------------------10-13-10-------|
B|-----------------------------10-13-10----------9-8~--|
G|-----------------10-10h12p10-------------------------|
D|-------3h5p3-/12-------------------------------------|
A|----/5-----------------------------------------------|
D|-----------------------------------------------------|

e|-----------------------------------------21----------------------------|
B|---/19h22p19h22p19h22p19h22p19h22p19h22--------15-15-13----------------|
G|---(^this is where you whammy down alot^)----------------12-13-12~-----|
D|-----------------------------------------------------------------------|
A|-----------------------------------------------------------------------|
D|-----------------------------------------------------------------------|
I know its not 100% right but i think i got most of. If your confused about
 the whammy bar part of the solo watch the music video. 

after the solo play the verse again a couple of times then the chorus then...

Bridge thing:
"ohhhhhhhhhhhhhhhhhhhhh watch this" 

e|--------------------------------------------------------------------|
B|--------------------------------------------------------------------|
G|--------------------------------------------------------------------|
D|--------------------------------------------------------------------|
A|--------------------------------------------------------------------|
D|---6-5-3-0-3-5-6-5-3-0-3-5-6-5-3-0-3-5-6-5-3-0-3-5-0----------------|
     . . . . . . . . . . . . . . . . . . . . . . . . .

e|-------------------------------------------------------|
B|-------------------------------------------------------|
G|-------------------------------------------------------|
D|--0--0-3-5-3--0-0-000---0-3-5-3--3-5-6-5-3-0-----------|
A|--0--0-3-5-3--0-0-000---0-3-5-3--3-5-6-5-3-0-----------|
D|--0--0-3-5-3--0-0-000---0-3-5-3--3-5-6-5-3-0-----------|
Play a couple times then go back into chorus.

another guitar is playing this during the last chorus...
e|-------------------------------------------------------------------------|
B|-------------------------------------------------------------------------|
G|------------------------------------------------------------/13b---------|
D|----0--0-/5-3-0-/6-5-0-/8-7--0-3-5-3-0--0-/5-3-0-/6-5-0-/8---------------|
A|-------------------------------------------------------------------------|
D|-------------------------------------------------------------------------|

end on:
e|----------|
B|----------|
G|----------|
D|--0~------|
A|--0~------|
D|--0~------|

Outro Solo:
e|--------------------------------------------------------------------------|
B|-10b----10b-10b-----------------------------------------------------------|
G|-13b----13b-13b-----------------------------------------------------------|
D|----------------------12--------------------------------3/6-5-3h5-3h5-3h5-|
A|---------------/10-12----12-10-----------------------3-5------------------|
D|-----------------------------------12-12-12~--\3-5-5----------------------|

e|--------------------------------------------------------------------------|
B|--------------------------------------------------------------------------|
G|-------/7-----------------------------------------------------------------|
D|---3p0-/7-----------------------------------------------------------------|
A|-------------0-whammy these notes down------------------------------------|
D|-------------0------------------------------------------------------------|

e|--------13----13-------13-------13-------13-------12-------12------12-----|
B|-----15----15-------15-------15-------15-------15-------15------15--------|
G|--14-------------14-------14-------14-------14-------14------14-----------|
D|--------------------------------------------------------------------------|
A|--------------------------------------------------------------------------|
D|--------------------------------------------------------------------------|

e|--------12-------12-------------------------------------------------------|
B|-----15-------15-----12b-12b-12b-12b--------------------------------------|
G|--14-------14--------12b-12b-12b-12b---12-10-----10-----------------------|
D|----------------------------------------------12----12-12\----------------|
A|-----------------------------------------------------------0-whammy down--|
D|-----------------------------------------------------------0--------------|
 
end on:      
e|-----------|
B|--10b~~~---|
G|--13b~~~---|
D|-----------|
A|-----------|
D|-----------|

| *  pinch-harmonic
| /  slide up
| \  slide down
| h  hammer-on
| p  pull-off
| ~  vibrato
| +  harmonic
| x  Mute note
===============================================================================
Tap to rate this tab
# A B C D E F G H I J K L M N O P Q R S T U V W X Y Z