Song name
# A B C D E F G H I J K L M N O P Q R S T U V W X Y Z

The Showdown - Agony Of Defeat tab

		   The Agony of Defeat - The Showdown
Tabbed by:Ducata
Email:aaron62091@yahoo.com

Tuning:drop D

| /  slide up
| \  slide down
| h  hammer-on
| p  pull-off
| ~  vibrato
| +  harmonic
| x  Mute note

E|---------------------------------------------------5---5-6-5-------------|
B|---------------------------------------------5-6-8---8-------------------|
G|2/-7-5-----------------------------------5-7-----------------------------|
D|-------8-7-5-----------------------5-7-8---------------------------------|
A|-------------8-7-5-----------5-7-8---------------------------------------|
D|-------------------8-7-5-7-8---------------------------------------------|

E|------10-------10-------10-------10-------12-------12-------13-13--------|
B|10-11----11-14----11-14----11-14----11-14----11-14----11-14--------------|
G|-------------------------------------------------------------------------|
D|-------------------------------------------------------------------------|
A|-------------------------------------------------------------------------|
D|-------------------------------------------------------------------------|

There is an effect on the last note, but I don't know how to do it.
E|-------------------------------------|One gituar plays it alone the first
B|-------5-6-5-5-6-5-8-6-5---6-5-5-6-5-|time, then with the harmony below.
G|2/-7-5-------------------7-----------|
D|-------------------------------------|
A|-------------------------------------|
D|-------------------------------------|

E|--------5---------6~-5-3-3-5-3-------------------------------------------|
B|6-5-6-8---8-5-6-8--------------6-5-3-2-----------------------------------|
G|-------------------------------------------------------------------------|
D|-------------------------------------------------------------------------|
A|-------------------------------------------------------------------------|
D|-------------------------------------------------------------------------|

Some of this could possibly be wrong because i'm doing this from memory, but I'm taking 
granted that you're smart enough to figure it out.
Tap to rate this tab
# A B C D E F G H I J K L M N O P Q R S T U V W X Y Z