Song name
# A B C D E F G H I J K L M N O P Q R S T U V W X Y Z

The Showdown - Hell Cant Stop Us Now tab

Song- Hell Can't Stop Us Now
Artist- The Showdown
Album- Epic A Chorus Of Obliteration
Translated by Christian Abbott
Key- *= Pinch Harmonics
     .= Palm Mute
     ~= Vibrato
     /= Slide Down
     \= Slide up
     T= Tremolo
     p= Pull Off
     h= Hammer On
     b= Bend
    ub= Unbend
    wd= Whammy Down (makes higher pitch)
    wu= Whammy Up (makes lower pitch)
    Xx= Play Section X amount of times
  (Xx)= Play whole line including sections
Guitar 1 tuning- DADGBe
Guitar 2 tuning- DADGBe
Guitar 3 tuning- DADGBe

Intro- Guitar 1
e -------------|--------------------------------------------|
B ---------x1--|---------------------------------x4---------|
G -------------|--------------------------------------------|
D -55-11-33-11-|3-55-5--3-55-3\5-3-55-5--1-11-3-33----------|
A -55-11-11-11-|3-55-5--3-55-3\5-3-55-5--1-11-3-33----------|
D -55-11----11-|3-55-5--3-55-3\5-3-55-5--1-11-3-33----------|

Intro- Guitar 2
e -16/-18b(20)-|-----------------------------------------------|
B -------------|---------------------------5-------------------|
G -------------|-----------------------5-3---------------------|
D -------------|3-55-5--3-55-3-5-3-55-5------3-55-5--3-55-3-5--|
A -------------|3-55-5--3-55-3-5-3-55-5------3-55-5--3-55-3-5--|
D -------------|3-55-5--3-55-3-5-3-55-5------3-55-5--3-55-3-5--|

e --------------------------------------------------------------|
B -6-8-6-------68-11-10-8~/(11~/)---x2--play-(11~/)second-time--|
G -----------57---------------------ONLY!!----------------------|
D -------8-78---------------------------------------------------|
A --------------------------------------------------------------|
D --------------------------------------------------------------|

Fill #1- Guitar 1
e -----------------------------------------------------------|
B -----------------------------------------------------------|
G -----------------------------------------------------------|
D -5-5-5-5-5-5-5-5-5-5-5-5-5-5-5-5---------------------------|
A -----------------------------------------------------------|
D -----------------------------------------------------------|
   . . . . . . . . . . . . . . . .

Fill #1- Guitar 2
e ------------------------------------|
B ------------------------------------|
G -----------------3-3-3-3-3-3-3-3----|
D ------------------------------------|
A ------------------------------------|
D ------------------------------------|
                   . . . . . . . .
Chorus- Guitar 1  This was kinda hard to hear|1's not 11's
play (55555555) only last time
e --------------------------|--------------------(X2)------|
B ---------------------x3---|------------------------------|
G --------------------------|------------------------------|
D -5-5-5--1-1-1--3-3333333--|-11111111-33333333-(55555555)-|
A -5-5-5--1-1-1--3-3333333--|-11111111-33333333-(55555555)-|
D -5-5-5--1-1-1--3-3333333--|-11111111-33333333-(55555555)-|

Chorus- Guitar 2      Sounds good, but not 100%
e ---6--------------6--------------6-------------------------------|
B -----------------------------------------------------------------|
G -57-53-875------57-53-87-------57-53-875------------------98-----|
D ----------865-----------86--------------865------8--6-9~86-------|
A -------------86-----------8653-------------86-689-98-------------|
D -----------------------------------------------------------------|
()= only play last time
e ----------------------------------------------------|
B -------------------------x2-------------------------|
G -(b11(14)ub/)---------------------------------------|
D ----------------------------------------------------|
A ----------------------------------------------------|
D ----------------------------------------------------|

Verse- Guitar 1
e ----------------------------------|
B ------------------------------x4--|
G -7-5-3------------7-5-3-----------|
D -------5-55555555-------1---3-----|
A -------5-55555555-------1---3-----|
D -------5-55555555-------1-0-3-----|
           ........         .

Verse- Guitar 2
e -------------65-------------65-------------65-------------65-----|
B -8x8x88x8x6x6---8x8x88x8x6x6---8x8x88x8x6x6---8x8x88x8x6x6---12/-|
G -----------------------------------------------------------------|
D -----------------------------------------------------------------|
A -------------------------------------------------------------x1--|
D -----------------------------------------------------------------|

Verse- Guitar 3
e --------------------11-9--------------------11-9----|
B -12x12x1212x12x11x11-----12x12x1212x12x11x11--------|
G ----------------------------------------------------|
D ----------------------------------------------------|
A ----------------------------------------------------|
D ----------------------------------------------------|

e --------------------11-9--------------------11-9-------|
B -12x12x1212x12x11x11-----12x12x1212x12x11x11------12/--|
G -------------------------------------------------------|
D -------------------------------------------------------|
A -------------------------------------------------------|
D ----------------------------------------------------x1-|

Bridge- Guitar 1+2
e ------------------------------x2-|
B ---------------------------------|
G ---------------------------------|
D -55-8-8-55-88-55-1-1-88-33-------|
A -55-8-8-55-66-55-1-1-88-33-------|
D -55-8-8-55----55-1-1-88-33-------|

Breakdown- Guitar 1+2  ()= play last time only
e --------------------------------------------------------------------------|
B --------------------------------------------------------------------------|
G --------------------------------------------------------------------------|
D -1---------------3---------------5--------7--------8--------1----3--------|
A -1---------------3---------------5--------7--------8--------1----3--------|
D -111111111111111-333333333333333-55555555-77777777-88888888-1111-3333(8/)-|

Chorus- Guitar 1  This was kinda hard to hear|1's not 11's
play (55555555) only last time
e --------------------------|--------------------(X2)------|
B ---------------------x3---|------------------------------|
G --------------------------|------------------------------|
D -5-5-5--1-1-1--3-3333333--|-11111111-33333333-(55555555)-|
A -5-5-5--1-1-1--3-3333333--|-11111111-33333333-(55555555)-|
D -5-5-5--1-1-1--3-3333333--|-11111111-33333333-(55555555)-|


Chorus- Guitar 2 Sounds good,but not 100%(*)means play harm.only 2nd time
e ---6(*)--------------6--------------6*--------------------------------|
B --------------------------------------------------------------75------|
G -57-53(*)-875------57-53-87-------57--53-875----------------64--------|
D -------------865-----------86---------------865----468-646-9----------|
A ----------------86-----------8653--------------86-6-------------------|
D ----------------------------------------------------------------------|
()= only play last time
e ----------------------------------------------------|
B -------------------------x2-------------------------|
G -(b11(14)ub/)---------------------------------------|
D ----------------------------------------------------|
A ----------------------------------------------------|
D ----------------------------------------------------|

Backround Figures For Soloish part- Guitar 1
play () first three times, but not the fourth
e ---------------------------|
B ----------------------x4---|
G ---------------------------|
D -1~-3~-(5~-3~)-------------|
A -1~-3~-(5~-3~)-------------|
D -1~-3~-(5~-3~)-------------|

1st Soloish part- Guitar 2
e ---------------------------------------------------------|
B ---------------------------------------------------------|
G -7h8~-7-5-3\7-5h7p5p3-3h5p3p2-2h3p2p0-7h8~-7-5-3-2-3-0wu-|
D ---------------------------------------------------------|
A ---------------------------------------------------------|
D ---------------------------------------------------------|

e -----------------------------------------------------45b7(9)/----|
B ---------------------------------------------------75------------|
G -7h8~-7-5-3\7-5h7p5p3-3h5p3p2-2h3p2p0------------64--------------|
D ---------------------------------------468-646-9~----------------|
A --------------------------------------6--------------------------|
D -----------------------------------------------------------------|


1st Soloish part- Guitar 3 (You can hear when this part comes in.)
e ----------------------------------------------------86-10-11-13b(15)/--|
B -8h9~-8-6-4\8-6h8p6p4-4h6p4p3-3h4p3p1-------------75-------------------|
G ---------------------------------------579-757-10~---------------------|
D --------------------------------------7--------------------------------|
A -----------------------------------------------------------------------|
D -----------------------------------------------------------------------|

Pre-Solo Pt.1- Guitar 1+2+3
e ----------------------------------------------------|
B ------------------------------------------x2--------|
G ----------------------------------------------------|
D -5-------------5-------------5-------------1-1-3-3--|
A -5-------------5-------------5-------------1-1-3-3--|
D -5-1-3-5-8-7-3-5-1-3-5-8-7-3-5-1-3-5-8-7-3-1-1-3-3--|

Pre-Solo Pt.2- Guitar 1+2
()means dont play last time
{}means only play last time
e ------------------------------------------------|
B ------------------------------------------------|
G ------------------------------------------------|
D -3-55-5--3-55-3\5-3-55-5--(1-11-3-33)-{--5}-----|
A -3-55-5--3-55-3\5-3-55-5--(1-11-3-33)-{5-5}-----|
D -3-55-5--3-55-3\5-3-55-5--(1-11-3-33)-{5-5}-----|
                                         .
Under Solo Pt.1- Guitar 1+2
e ------------------------------x2-|
B ---------------------------------|
G ---------------------------------|
D -55-8-8-55-88-55-1-1-88-33-------|
A -55-8-8-55-66-55-1-1-88-33-------|
D -55-8-8-55----55-1-1-88-33-------|

Under Solo Pt.2- Guitar 1+2
Play 4 times but on 4th, leave out the #s in the ()
e ----------------------------------------------|
B -------------------------------------------X4-|
G -3-333333-5-555555-(7-777777-10-1010-5-55)----|
D -x-xxxxxx-x-xxxxxx-(x-xxxxxx-x--x-x--x-xx)----|
A -1-111111-3-333333-(5-555555-8--8-8--3-33)----|
D ----------------------------------------------|

Solo- Guitar 3
e -1086h8p6p5h6p5p3h5p3-3----------------------15-18-17-15-13--|
B ---------------------6-6p5h6p5p3h5p3-3-----------------------|
G ------------------------------------5-5p3h5~-----------------|
D -------------------------------------------------------------|
A -------------------------------------------------------------|
D -------------------------------------------------------------|

e ---------------------------------|
B -17-15-13-------13-15b(17)ub15---|
G ----------15-14------------------|
D ---------------------------------|
A ---------------------------------|
D ---------------------------------|

e --------------------------------------------------------------------------|
B -16p12h14h16p12h14h16p12h14h16p12h14h17p12h14h19p12h14h17p12h14h16p12h14--|
G --------------------------------------------------------------------------|
D -you------need--------to----------------tap------------------------here---|
A --------------------------------------------------------------------------|
D --------------------------------------------------------------------------|

e ---------------------------1614121412--12-------------------------|
B -161412-------141211-----------------16--16141614121412--12-------|
G -------1513---------1311-------------------------------15--1513---|
D -----------16-----------14----------------------------------------|
A ------------------------------------------------------------------|
D ------------------------------------------------------------------|

e -6~-8/5~-3/-3~--8h10~-6-8-56-5-3-1----8-10--65-6--------------65---|
B -----------------------------------4~------------8x8x88x8x6x6x-----|
G -------------------------------------------------------------------|
D -------------------------------------------------------------------|
A -------------------------------------------------------------------|
D -------------------------------------------------------------------|

e --------------65-------------|
B -8x8x88x8x6x6x--8*~----------|
G -----------------------------|
D -----------------------------|
A -----------------------------|
D -----------------------------|


Chorus- Guitar 2      Sounds good, but not 100%
e ---6--------------6--------------6-------------------------------|
B -----------------------------------------------------------------|
G -57-53-875------57-53-87-------57-53-875------------------98-----|
D ----------865-----------86--------------865------8--6-9~86-------|
A -------------86-----------8653-------------86-689-98-------------|
D -----------------------------------------------------------------|


Modified Chorus Riff- Guitar 1  This comes in late
e -------------------------------------------------------------|
B -------------------------------------------------------------|
G -------------------------------------------------------------|
D -5-55-1-11-3-3333333-5-55-1-11-3-3333333--11111111-33333333--|
A -5-55-1-11-3-3333333-5-55-1-11-3-3333333--11111111-33333333--|
D -5-55-1-11-3-3333333-5-55-1-11-3-3333333--11111111-33333333--|

Chorus- Guitar 2      Sounds good, but not 100%
e ---6--------------6--------------6-------------------------------|
B -----------------------------------------------------------------|
G -57-53-875------57-53-87-------57-53-875------------------98-----|
D ----------865-----------86--------------865------8--6-9~86-------|
A -------------86-----------8653-------------86-689-98-------------|
D -----------------------------------------------------------------|

Chorus- Guitar 1  |1's not 11's
e --------------------------|--------------------(X2)------|
B ---------------------x3---|------------------------------|
G --------------------------|------------------------------|
D -5-5-5--1-1-1--3-3333333--|-11111111-33333333-(55555555)-|
A -5-5-5--1-1-1--3-3333333--|-11111111-33333333-(55555555)-|
D -5-5-5--1-1-1--3-3333333--|-11111111-33333333-(55555555)-|

Then the Last Riff thing which goes like this

Guitar 1
e -------------------|
B -------------------|
G -------------------|
D -3---------5/------|
A -3-33-33-3-5/------|
D -3-33-33-3-5/------|
     .. .. .
Guitar 2
e --------------------|
B --------------------|
G -10~/--12~/---------|
D --------------------|
A --------------------|
D --------------------|


This was one was hard to tab, and I probrably messed up
a few times. The solo sounds ok, but someone might want to
fix it up a little.

email me-guitarskategood@hotmail.com
IM- Dumbone247
Have fun!
Please comment or rate.
Tap to rate this tab
# A B C D E F G H I J K L M N O P Q R S T U V W X Y Z