Song name
# A B C D E F G H I J K L M N O P Q R S T U V W X Y Z

The Shys - The Hangman tab

                          Tabbed By: Mark Peters
                      Email: markpeterz@hotmail.co.uk

I tabbed this song on my acoustic, it's electric/piano in the song, but it'll all sound 
same pretty much.

Awesome song from an awesome band..

Guitar 1 = Lead
Guitar 2 = Piano/Guitar 2 (they play same things)


Tuning: Standard


Guitar 2

     G   A#  C          G   A#  C
e|---3---6---8----\3----3---6---8---\3-------------------------------------|
B|---3---6---8----\3----3---6---8---\3-------------------------------------|
G|---4---7---9----\3----4---7---9---\3-(repeat for verse and chorus)-------|
D|---5---8---10---\3----5---8---10--\3-------------------------------------|
A|---5---8---10---\3----5---8---10--\3-------------------------------------|
E|---3---6---8----\3----3---6---9---\3-------------------------------------|

Guitar 1 (lead) (Intro)

e|-------------------------------------------------------------------------|
B|-------------------------------------------------------------------------|
G|--10/12-12-15-12----12----10/12-12-17-17-15-17-15------------------------|
D|-----------------15------------------------------------------------------|
A|-------------------------------------------------------------------------|
E|-------------------------------------------------------------------------|

e|-------------------------------------------------------------------------|
B|-------------------------------------------------------------------------|
G|--10/12-12-15-12----12-15-12----15/17-17-15-17-15------------------------|
D|-----------------15----------15------------------------------------------|
A|-------------------------------------------------------------------------|
E|-------------------------------------------------------------------------|

Break

e|-------------------------------------------------------------------------|
B|-------------------------------------------------------------------------|
G|---10/12-10-------------10-----------------------------------------------|
D|------------12-12-10-12----10-8-------------8----------------------------|
A|---------------------------------10-10-8-10------------------------------|
E|-------------------------------------------------------------------------|

Solo (at the end)

e|-------------------------------------------------------------------------|
B|-------------------------------------------------------------------------|
G|--10/12-12-15-12-15-12--10/12-12--17-17-15-17-15-------------------------|
D|-------------------------------------------------------------------------|
A|-------------------------------------------------------------------------|
E|-------------------------------------------------------------------------|

e|-------------------------------------------------------------------------|
B|-------------------------------------------------------------------------|
G|--10/12-12-15-12-15-12---15-12-15-12/17-17-15-17-15----------------------|
D|-------------------------------------------------------------------------|
A|-------------------------------------------------------------------------|
E|-------------------------------------------------------------------------|

e|-------------------------------------------------------------------------|
B|-------------------------------------------------------------------------|
G|---10/12-10-------------10-----------------------------------------------|
D|------------12-12-10-12----10-8-------------8----------------------------|
A|---------------------------------10-10-8-10------------------------------|
E|-------------------------------------------------------------------------|

I know it all looks like it's me being stupid/amateur and just playing it all on the 'G' 
but to keep the rock/grindcore sound it sounds like they're sticking to bass strings.

If you got any questions, just send me a message/email.

http://www.theshys.com
Tap to rate this tab
 
# A B C D E F G H I J K L M N O P Q R S T U V W X Y Z