Song name
# A B C D E F G H I J K L M N O P Q R S T U V W X Y Z

The Sigit - Live In New York tab

song : Live in New York
artist : The S.I.G.I.T

INTRO

part 1
e|------------------|
B|------------------|
G|--7---7-7-7-7-9-5-| 4x
D|--7---7-7-7-7-9-5-|
A|--5---5-5-5-5-7-3-|
E|------------------|

part 2
guitar 1
e|------------------|
B|------------------|
G|--7---7-7-7-7-9-5-| 8x
D|--7---7-7-7-7-9-5-|
A|--5---5-5-5-5-7-3-|
E|------------------|
guitar 2
e|----------------------------------|
B|--8-8p7---------------------------|
G|----------7--5---------7p6p5------| 3x
D|---------x--x--5----5--------5-5--|
A|----------------------------------|
E|----------------------------------|

e|----------------------------------|
B|--8-8p7---------------------------|
G|----------7--5---------7p6p5-7-7--|
D|---------x--x--5----5-------------|
A|----------------------------------|
E|----------------------------------|




VERSE

e|------------------|
B|------------------|
G|--7-----------5---| 
D|--7-----------5-5-|
A|--5-----------3-5-|
E|----------------3-|

e|------------------|
B|------------------|
G|--7---7-7-7-7-5---| 
D|--7---7-7-7-7-5-5-|
A|--5---5-5-5-5-3-5-|
E|----------------3-|

play it four times 


PRE CHORUS

e|-----|
B|-----|
G|-----|
D|--7--| find out the strumming pattern guys
A|--7--|
E|--5--|


CHORUS

e|----------------------------------|
B|----------------------------------|
G|--7---7-7-7-7--5------------------| 
D|--7---7-7-7-7--5--5---5-5-5-5-5-5-|
A|--5---5-5-5-5--3--5---5-5-5-5-5-5-|
E|------------------3---3-3-3-3-3-3-|


It's my first tab, so if you find any mistakes or wanna give a suggestion please share it with me
tabbed by : lutfi1011
Tap to rate this tab
# A B C D E F G H I J K L M N O P Q R S T U V W X Y Z