Song name
# A B C D E F G H I J K L M N O P Q R S T U V W X Y Z

The Sigit - Horse tab

Horse - The Sigit whole Song

Tempo Moderate

Intro:

E--------------------------------|
B--------------------------------|
G-----5-----5-7-5-----5----------| 4x
D-7-7---7-7-------7-7---7-7------|
A-7-7---7-7-------7-7---7-7-5h6h7|
E-5-5---5-5-------5-5---5-5------|

Verse :

E--------------------------------|
B--------------------------------|
G-----5-----5-7-5-----5----------| 2x
D-7-7---7-7-------7-7---7-7------|
A-7-7---7-7-------7-7---7-7-5h6h7|
E-5-5---5-5-------5-5---5-5------|

Then play this on the same tempo : D D F  D D F G D D F D D CDE

E--------------------------------|
B--------------------------------|
G-----5-----5-7-5-----5----------|
D-7-7---7-7-------7-7---7-7------|
A-7-7---7-7-------7-7---7-7-5h6h7|
E-5-5---5-5-------5-5---5-5------|

Riff:

E------------|
B------------|
G-99999999-7-|
D-99999999-7-|
A-77777777-5-|
E------------|

Pre-Solo :

E------------------------|
B------------------------|
G------------5-----------| 4x
D-7-7-5--7-7-5--7-7-5--7-|
A-7-7-5--7-7-3--7-7-5--7-|
E-5-5-3--5-5----5-5-3--5-|

Solo:

E------------------------------------------------------|
B------------------------------------------------------|
G-7(9)-7-5-7-5--7(9)-7-5-7----7(9)-7-5-7-5--7-7(9)-9---|
D--------------------------5---------------------------|
A------------------------------------------------------|
E------------------------------------------------------|

E---------------------------------------------------------|
B---------------------------------------------------------|
G-7(9)-7-5-7-5--7(9)-7-5-7----7(9)-7-5-7-5----------------|
D--------------------------5------------------------------|
A---------------------------------------------------------|
E-------------------------------------------12 slide to 0-|

E------------12-----------------------------------|
B------8h10-----15-13-15-13----------------7557---|
G--7------------------------14---------5---7557---|
D----------------------------------5-7---7------7-|
A--------------------------------7--------------7-|
E-------------------------------------------------|

Done, Hope it's worth to see, Thanks.
Tap to rate this tab
# A B C D E F G H I J K L M N O P Q R S T U V W X Y Z