Song name
# A B C D E F G H I J K L M N O P Q R S T U V W X Y Z

The Sigit - No Hook tab


E|------------7P5--------------|
B|----5-5-8-5------5-8-5-0-3-4-|
G|-----------------------------|
D|-----------------------------|
A|-----------------------------|
E|-----------------------------|
PLAY THIS PART A COUPLE OF TIMES THEN THIS PART COMES IN..


E|---------------12P10-----------------|
B|---10-10-13-10-------10-13-13-5-8-9--|
G|-------------------------------------|
D|-------------------------------------|
A|-------------------------------------|
E|-------------------------------------|
PLAY THIS ONCE THEN GO BACK TO THE TOP


E|-----------------------------------------------|
B|-----------------------------------------------|
G|-----------------------------------------------|
D|--222------------------------------------------|
A|--222-555-777-7-5-4----------------------------|
E|------333-555-5-3-2----------------------------|
PLAY THIS ONCE

E|----------------------------------------------------------------|
B|-------5-------8-------10---------------------------------------|
G|----------------------------------------------------------------|
D|--222-----------------------------------------------------------|
A|--222-----555-----777------7-5-4--------------------------------|
E|----------333-----555------5-3-2--------------------------------|
PLAY THIS PART A COUPLE OF TIMES THEN GO BACK TO THE VERY TOP

AND THAT'S ABOUT IT
Tap to rate this tab
# A B C D E F G H I J K L M N O P Q R S T U V W X Y Z