Song name
# A B C D E F G H I J K L M N O P Q R S T U V W X Y Z

The Silent Comedy - All Saints Day tab

Standard Tuning:

Em
|---------------------------------------------------------------------|
|---------1-0--------------1-1-----------1-0----------------1-0-------|
|--0------0-0--------------0-0-----------0-0----------------0-0-------|
|--2------2-2----2---------2-2-----------2-2-----2----------2-2-------|
|--2------2-2--------------2-2-----------2-2----------------2-2-------|
|--0------0-0-------0------0-0-----0-----0-0--------0-------0-0-----0-|

|--------------------------------------------------------------------------|
|--1----------------------------4------------------------------------------|
|--2-----------0---------------4-----0------------------4------3---4-------|
|--2---------0---------0------4------2----5/7-----------5------4---4-------|
|--0-------2--------------2----------2----5/7-----------5------4---2-------|
|--------3--------2------------------0----3/5-----3-----3--2---2-----------|

|--------------------------------------------------------------0-------------|
|4---------5---7-----8--7------------------4-----------------------------4---|
|--4-------4---5-----7--7------------------4-----0----2----------------------|
|----------4---4-----7--7------------------4-----2----2---0--2---2--0---4----|
|--------------------5--5-----3------------2-----2----0---------------2-------|
|----0---------------------------3---2-----------0---------------------------|

Side-note* It's much easier to play 8775 in the D position.

|------------------------------------------------------|
|------1-0-0------------1-0-0-----------1-0-0----------|
|--0---0-0-0------------0-0-0-----------0-0-0----------|
|--2---2-2-2----2-------2-2-2----2------2-2-2----2-----|
|--2---2-2-2------------2-2-2-----------2-2-2----------|
|--0---0-0-0-------0----0-0-0-------0---0-0-0------0---|

|--------------------------------------------------------------------------|
|--------------------------------------------------------------------------|
|--0--------------------------------4----------------------4-----3----4----|
|--2-----5/7--------5----------5----4---2-------5/7--------5-----4----4----|
|--2-----5/7-----2--5------0---5----2-----2-----5/7--------5-----4----2----|
|--0-----3/5---3----3---2------3------------0---3/5-----3--3--2--2---------|

|-----------------------------------------------------------------------------|
|4-------5---7----8--7--5--7----------4---------------------------------------|
|--4-----4---5----7--7--7--7----------4---0-------------------5----------4-----|
|--------4---4----7--7--7--7----------4---2----5/7---------2--5------1---4---|
|-----------------5--5--5--5----------2---2----5/7---5--3-----3----2-----2----|
|----0--------------------------3--2------0----3/5----------------------------|


|-------------------------------------------------------|
|------1-0-0-----------1-0-0-----------1-0-0------------|
|--0---0-0-0-----------0-0-0-----------0-0-0------------|
|--2---2-2-2----2------2-2-2----2------2-2-2----2-------|
|--2---2-2-2-----------2-2-2-----------2-2-2------------|
|--0---0-0-0-------0---0-0-0-------0---0-0-0------0----|

|--------------------------|
|--------------------------|
|--------5-----------4-----| REPEAT X6
|--7-----5-----5-----4-----|
|--7-----3-----5-----2-----|
|--5-----------3-----------|

|--------------------------------------|
|--------------------------------------|
|--0--------------------5--------4-----|
|--2---5/7----------2---5-----1--4------|
|--2---5/7---0-2-3------3---2----2-----|
|--0---3/5-----------------------------|

|-----------------------------------------------------|
|------1-0-0------------1-0-0-----------1-0-0---------|
|--0---0-0-0------------0-0-0-----------0-0-0---------|
|--2---2-2-2----2-------2-2-2----2------2-2-2----2----|
|--2---2-2-2------------2-2-2-----------2-2-2---------|
|--0---0-0-0-------0----0-0-0-------0---0-0-0------0--|End
Tap to rate this tab
# A B C D E F G H I J K L M N O P Q R S T U V W X Y Z