Song name
# A B C D E F G H I J K L M N O P Q R S T U V W X Y Z

The Simpsons - Spider Pig tab

Help us improve GuitareTab! Take a short survey!
¡¡¡Here's Spider Pig!!! Enjoy!

e--------------------------------------------------------------------------|
B----------3--------1------------------------3--3--3---1-1-----------------|
G--0---3-----------------3--0-------0---3-------------------3-0------------|
D--------------------------------------------------------------------------|
A--------------------------------------------------------------------------|
E--------------------------------------------------------------------------|

e---------0--3----3--0----------------------3-----3--1-----------3--1-----|
B----1-------------------1---------0----3----------------3---0------------|
G-------------------------------------------------------------------------|
D-------------------------------------------------------------------------|
A-------------------------------------------------------------------------|
E-------------------------------------------------------------------------|

e-------------------------------------------------------------------|
B---1--1-----1------------------------------------------------------|
G---------3---------3----0—(hold)-----------------------------------|
D-------------------------------------------------------------------|
A-------------------------------------------------------------------|
E-------------------------------------------------------------------|
Related for Spider Pig tab