Song name
# A B C D E F G H I J K L M N O P Q R S T U V W X Y Z

The Simpsons - Sadgasm - Margerine tab

Verse 
    F               C               A               Bb 
e|--------------------------------------------------------------------------|
B|--------------------------------------------------------------------------|
G|------------------5-----5-----5-------------------1-----1-----1-----------|
D|--3-----3-----3---5-----5-----5---7-----7-----7---1-----1-----1-----------|
A|--3-----3-----3---3-x-x-3-x-x-3-x-7-----7-----7---3-x-x-3-x-x-3-----------|
E|--1-x-x-1-x-x-1-x-----------------5-x-x-5-x-x-5-x-------------------------|

Bridge
    C       F       A      Bb
e|--------------------------------------------------------------------------|
B|--------------------------------------------------------------------------|
G|--7-------10--------------------------------------------------------------|
D|--7-------10------7-------3-----------------------------------------------|
A|--5-------8-------7-------3-----------------------------------------------|
E|------------------5-------1-----------------------------------------------|
Chorus
    F      A     Bb
e|--------------------------------------------------------------------------|
B|--------------------------------------------------------------------------|
G|---------------3----------------------------------------------------------|
D|--3------5-----3----------------------------------------------------------|
A|--3------5-----1----------------------------------------------------------|
E|--1------3----------------------------------------------------------------|


Lyrics:
Spread yellow gunk on my pancake heart,
Country churned girl in my grocery cart.
I paid for her dreams, she taught me to cry,
Like watery knives, like rain from my eyes.
I can't believe you're not mine,
I can't believe you're not mine.
Margerine. Margerine. Margerine.
MARGERINE. MARGERINE.
Tap to rate this tab
# A B C D E F G H I J K L M N O P Q R S T U V W X Y Z