Song name
# A B C D E F G H I J K L M N O P Q R S T U V W X Y Z

The Simpsons - Tomacco Song tab

tomacco song


the simpsons


TRANSCRIBED BY RUDY GUZMAN


guzman_84@hotmail.com




                                               
eb:-----------------------------------|
Bb:-------------3-3-------------------|
Gb:------2-4-2--2-2-------2-4-2--2-2--|
Db:-2-4---------0-0--2-4---------2-2--|
Ab:------------------------------0-0--|
Eb:-----------------------------------|

eb:---------------------------------------|
Bb:-----------------3-5-3-------------3-3-|
Gb:------2-4-2--2-4--------4p2--------2-2-|
Db:-2-4------------------------4p2----0-0-|
Ab:--------------------------------5------|
Eb:---------------------------------------|

eb:-----------------|
Bb:---------------3-|
Gb:-4p2--------2--2-|
Db:-----4p2----2--0-|
Ab:---------5--0----|
Eb:-----------------|

hillo son mex

09/04/09
Tap to rate this tab
# A B C D E F G H I J K L M N O P Q R S T U V W X Y Z