Song name
# A B C D E F G H I J K L M N O P Q R S T U V W X Y Z

The Skints - Culture Vulture tab

----------------------------------------------------------------------------
                             SONG NAME - Band Name
----------------------------------------------------------------------------
Tabbed by:Steve Rembalnce :P 
Email:

Tuning: Standard

These are the right chords they are just not the choppy chords which the
skints use , but if you want a simple way to play it here you go 
and sorry i couldnt do the start 


Verse(strummed on the off beat)

e|-------------------------------------------------------------------------|
B|-------------------------------------------------------------------------|
G|-6--6--------------------2-----6--6--------------------------------------|
D|-6--6--6--6----x3--then--2--6--6--6--------------------------------------|
A|-4--4--6--6--------------0--6--4--4--------------------------------------|
E|-------4--4-----------------4--------------------------------------------|


that sequence is repeated god knows how many times before the break 
down starts. 

Breakdown:this starts palm muted then gradually lifts off and is repeated
in the whole break down (but misses the last chords on every other repeat
i believe)

e|-------------------------------------------------------------------------|
B|-------------------------------------------------------------------------|
G|--6-6-6-6---------------2-2-2-------6-6-6-6------------------------------|
D|--6-6-6-6----6-6-6-6----2-2-2-6-6-6-6-6-6-6------------------------------|
A|--4-4-4-4----6-6-6-6----0-0-0-6-6-6-4-4-4-4------------------------------|
E|-------------4-4-4-4----------4-4-4--------------------------------------|

after the break down it goes back into the verse rhythm again and continues
til towards the end when this riff starts to be played. 

e|-------------------------------------------------------------------------|
B|-------------------------------------------------------------------------|
G|-------------------------------------------------------------------------|
D|------------6-6-6-6-----------------6------------------------------------|
A|-4-4-6-7-6-4----------4-4-6-7-6-4---x------------------------------------|
E|----------------------------------4-4------------------------------------|

e|-------------------------------------------------------------------------|
B|-------------------------------------------------------------------------|
G|-------------------------------------------------------------------------|
D|-------------6-6-6-6-----------------------------------------------------|
A|-4-4-6-7-6-4----------4-4-6-7-6-4-2--------------------------------------|
E|--------------------------------------4----------------------------------|

repeat once then the song finishes
************************************

| /   slide up
| \   slide down
| h   hammer-on
| p   pull-off
| ~   vibrato
| +   harmonic
| x   Mute note
| b   Bend
| pb  Pre-bend
| br  Bend release
| pbr Pre-bend release
| brb Bend release bend

************************************
Tap to rate this tab
 
# A B C D E F G H I J K L M N O P Q R S T U V W X Y Z