Song name
# A B C D E F G H I J K L M N O P Q R S T U V W X Y Z

The Skints - Culture Vulture tab

-------------------------------------------------------------------------------
                             Culture Vulture - The Skints
-------------------------------------------------------------------------------
Tabbed by:steveyrem
E-mail:

i Tabbed the rest of this song but unfortunatly i didnt work out the intro
 when i did it then and as its to late to change im making this

Tuning: standard

This is basically the strumming right at the start of the song

e|-------------------------------------------------------------------------|
B|-------------------------------------------------------------------------|
G|-2-----------------------------------------------------------------------|
D|-2---6---5---6-----------------------------------------------------------|
A|-0---6---5---6-----------------------------------------------------------|
E|-----4---3---4-----------------------------------------------------------|
Tap to rate this tab
# A B C D E F G H I J K L M N O P Q R S T U V W X Y Z