The Sleeping - Youll Be A Corpse Before Your Time tab

Tuning: Drop D


|Intro|

Guitar 1
e|--------|
B|--------|G|---10---|Strum Really Fast
D|--------|
A|---8----|
D|--------|

Guitar 2
e|-----------|  |------------|  |-----------|
B|-----------|  |------------|  |-----------|
G|-3-3-3-3-3-|  |------------|  |-----------|
D|-3-3-3-3-3-|x4|-4-4-4-4-4--|x2|-6-6-6-6-6-|x2
A|-1-1-1-1-1-|  |-4-4-4-4-4--|  |-6-6-6-6-6-|
D|-----------|  |-4-4-4-4-4--|  |-6-6-6-6-6-|


|Verse| (Part 1)

Guitar 1
e|----------------|  |----------------|  |----------------|
B|----------------|  |----------------|  |----------------|
G|-15-15-15-15-15-|  |-11-11-11-11-11-|  |-13-13-13-13-13-|
D|----------------|x4|----------------|x2|----------------|x2
A|-13-13-13-13-13-|  |-9--9--9--9--9--|  |-11-11-11-11-11-|
D|----------------|  |----------------|  |----------------|

Guitar 2
e|-----------|  |------------|  |-----------|
B|-----------|  |------------|  |-----------|
G|-3-3-3-3-3-|  |------------|  |-----------|
D|-3-3-3-3-3-|x4|-4-4-4-4-4--|x2|-6-6-6-6-6-|x2
A|-1-1-1-1-1-|  |-4-4-4-4-4--|  |-6-6-6-6-6-|
D|-----------|  |-4-4-4-4-4--|  |-6-6-6-6-6-|


|Verse| (Part 2)

Guitar 1
e|----------------------|  |----------------------------------|
B|----------------------|  |----------------------------------|
G|----------------------|  |----------------------------------|
D|-8\11/8\10~-6/8~-4/6~-|x3|--8888-10101010-111111-13131313---|x1
A|----------------------|  |----------------------------------|
D|----------------------|  |----------------------------------|
                                   ^10's    ^11's  ^13's
Guitar 2
e|--------------------------------------|
B|--------------------------------------|
G|-3-3-3-3-3-3-3-3----------------------|
D|-3-3-3-3-3-3-3-3---4-4-4-4---6-6-6-6--|
A|-1-1-1-1-1-1-1-1---4-4-4-4---6-6-6-6--|
d|-------------------4-4-4-4---6-6-6-6--|
The first chord lasts 4 measures. The 2nd & 3rd last 2 measures. 


|Chorus|

Guitar 1
e|-------------------------------|  |------|
B|-------------------------------|  |------|
G|--18\15-15-15~--13-15-15--13~--|  |--10--|Strum Really Fast, Pause,
D|-------------------------------|x2|------|Continue.
A|--16\13-13-13~--11-13-13--11~--|  |--8---|
E|-------------------------------|  |------|

Guitar 2
e|--------------------------|  |-----------|
B|--------------------------|  |-----------| 
G|--------------------------|  |-----------|Strum Strum Strum Strum, Pause,
D|--11\8-8-8~--6-8-8--6~----|x2|--4-4-4-4--|Continue :)
A|--11\8-8-8~--6-8-8--6~----|  |--4-4-4-4--|
D|--11\8-8-8~--6-8-8--6~----|  |--4-4-4-4--|



|Pre-Verse & Verse 2|

Guitar 1
e|---------------|  |----------------|  |----------------|
B|---------------|  |----------------|  |----------------|
G|-15-1515-15~~~-|  |-11-1111-11~~~--|  |-13-1313-13~~~--|
D|---------------|x4|----------------|x2|----------------|x2
A|-13-1313-13~~~-|  |-9--9-9--9-~~~--|  |-11-1111-11~~~--|
D|---------------|  |----------------|  |----------------|

Guitar 2
e|------------|  |------------|  |---------|
B|------------|  |------------|  |---------|
G|-3-3-3~~~---|  |------------|  |---------|
D|-3-3-3~~~---|x4|-4-4-4~~~---|x2|-6-6-6~--|x2
A|-1-1-1~~~---|  |-4-4-4~~~---|  |-6-6-6~--|
D|------------|  |-4-4-4~~~---|  |-6-6-6~--|


Verse Part 2 x1

Piano Part x2


|Bridge| Part 1

Guitar 1
e|-----------------------------|
B|-------------18~-181818------|
G|-15~-151515------------------|
D|-------------15~-151515------|x8
A|-13~-131313------------------|
D|-----------------------------|

Guitar 2 (Clean)
e|----------------------------------------------------------------|
B|------2-------1------2-------2-------2-------1-------1-----1-4--|
G|---3------3-------3------3-------3-------3-------3-------3------|
D|-3---3--3---3---3---3--3---3---3---3---3---3---3---3---3--------|
A|----------------------------------------------------------------|
E|----------------------------------------------------------------|
This Part isn't in the song. I Made it up so guitar 2 could have fun.
Hope it sounds nice :)


|Bridge| Part 2

Guitar 1
e|-------------------------------|------|      |-----|
B|-18*-18*-18*-21*-19*--18*--16*-|-13*--|      |-18~-|  *Strum Fast
G|-------------------------------|------|<1st  |-----|
D|-15*-15*-15*-18*-16*--15*--13*-|-10*--|Ending|-15~-|
A|-------------------------------|------|  2nd>|-----|
D|-------------------------------|------|      |-----|

Guitar 2
e|-------------------------------|------|      |-----|
B|-------------------------------|------|      |-----|
G|-3~--5~--6~--13~--11~--10~--8~-|--5~--|<1st  |-10~-|
D|-3~--5~--6~--13~--11~--10~--8~-|--5~--|Ending|-10~-|
A|-1~--3~--4~--11~--9-~--8-~--6~-|--3~--|  2nd>|-8-~-|
D|-------------------------------|------|      |-----|


GO TO CHORUS
THEN BRIDGE

End on.....

Guitar 1
e|--------|
B|--------|
G|---15---|Strum Really Fast :)
D|--------|
A|---13---|
D|--------|

Guitar 2
e|--------|
B|--------|
G|---3----|Strum Really Fast :D
D|---3----|
A|---1----|
D|--------|


The End :3
Tap to rate this tab
 
# A B C D E F G H I J K L M N O P Q R S T U V W X Y Z