Song name
# A B C D E F G H I J K L M N O P Q R S T U V W X Y Z

The Slip - Children Of December tab

Help us improve GuitareTab! Take a short survey!
Here is Children of December by the Slip, a great song. I figured this out by watching 
youtube video of them playing it, so it's pretty accurate. I'm just laying out the right 
you can figure out the rest. Enjoy and message me with comments if you want.

Intro/Verse (All the parents...)
e----0----10-----10-------------------------------|
B----0----12-----10-------------------------------|
G----11---12-----0--------------------------------|
D----12---10-----9--------------------------------|
A----12--------9/10----9/7---7/9/7---7/9/7---5/2--|
E---/10-------------------------------------------|

e----0----10-----10----------0--|
B----0----12-----10----------0--|
G----11---12-----0-----------7--|
D----12---10-----9-----------5--|
A----12--------9/10----9/7---7--|
E---/10----------------------0--|

Chorus (When you're born in December...)
e----2---0---3---|
B----3---3---3---|
G----2---0---0---|
D----0---0---0---|
A--------2---x---|
E------------3---|

Outro
e-------------------------------------|
B----5---4---3------------6---5---3---|
G----4---3---2------------5---4---2---|
D-------------------------------------|
A----4---3---2------------5---4---2---|
E-------------------------------------|
Related for Children Of December tab