Song name
# A B C D E F G H I J K L M N O P Q R S T U V W X Y Z

The Smalls - Middle Of The Road tab

------------------------------------------------
				|    Middle of The Road - The Smalls.          |
				------------------------------------------------



	Middle of The Road
	The Smalls.(yes that's a period) 
	The Smalls.
	Independant?
        Their website is   http://www.thesmalls.ca 
unfotunately though I don't know how to get past that front page but they also 
have myspace which is 

http://www.myspace.com/thesmallsab   you can also listen to the song at
                                        http://www.youtube.com/watchv=SFBA_Vn309I

	Great tune by a band that I wish was still rocking. 
        Unfortunately, they broke up :( . 
        Oh well at least we still have Corb :D.
        Anways, please, Please, PLEASE rate and comment, thank you.


       Intro/Chorus:     
      
e|-------------------------|
B|-------------------------|
G|-------------------------|
D|-7--5--3-3-3-3-3-3-3-3-3-|
A|-7--5--3-3-3-3-3-3-3-3-3-|
E|-5--3--1-1-1-1-1-1-1-1-1-|x3 (4th time play 331xx around 15 times?
PM->       . . . . . . . .          either way you understand)


         Verse:
    
e|-----------------------------------------|
B|-----------------------------------------|
G|-----------------------------------------|
D|-7-7-7-7-5-5-5-5-12-12-12-12-10-10-10-10-|
A|-7-7-7-7-5-5-5-5-12-12-12-12-10-10-10-10-|
E|-5-5-5-5-3-3-3-3-10-10-10-10--8--8--8--8-|x12

	middle of the road,
	Is trying to find me.
	I'm standing in the middle of life with my pains behind me.
	But, I got a smile
	For everyone I meet.
	Long as you don't try dragging my bay,
	Or dropping a bomb on the street


       Chorus:

e|-------------------------|
B|-------------------------|
G|-------------------------|
D|-7--5--3-3-3-3-3-3-3-3-3-|
A|-7--5--3-3-3-3-3-3-3-3-3-|
E|-5--3--1-1-1-1-1-1-1-1-1-|x3 (4th time play 331xx around 15 times?)
PM->       . . . . . . . .          

	So come on,
	Get in the road.
	Come on now,
	In the middle of the road, yeah.


	Verse:
    
e|-----------------------------------------|
B|-----------------------------------------|
G|-----------------------------------------|
D|-7-7-7-7-5-5-5-5-12-12-12-12-10-10-10-10-|
A|-7-7-7-7-5-5-5-5-12-12-12-12-10-10-10-10-|
E|-5-5-5-5-3-3-3-3-10-10-10-10--8--8--8--8-|x10

	In the middle of the road,
	You see the darnest things.		
        Like fat cats driving around in jeeps through the city,
	Wearing big diamond rings and silk suits.
	Past corrugated tin shacks holed up with kids and
	Man I don't mean a Hampstead nursery.
	But when you own a big chunk of the bloody third world,
	The babies just come with the scenery.


 	Chorus:

e|-------------------------|
B|-------------------------|
G|-------------------------|
D|-7--5--3-3-3-3-3-3-3-3-3-|
A|-7--5--3-3-3-3-3-3-3-3-3-|
E|-5--3--1-1-1-1-1-1-1-1-1-|x3 (4th time play 331xx around 15 times?)
PM->       . . . . . . . .          

	So come on,
	Get in the road.
	Come on now,
	In the middle of the road, yeah.

	
	Post-solo:


e|-----------------------------------------|-----------------------------------------|
B|-----------------------------------------|-----------------------------------------|
G|-----------------------------------------|-----------------------------------------|
D|-7-7-7-7-5-5-5-5-12-12-12-12-10-10-10-10-|-7-7-7-7-5-5-5-5-12-12-12-12-10-10-10-10-|
A|-7-7-7-7-5-5-5-5-12-12-12-12-10-10-10-10-|-7-7-7-7-5-5-5-5-12-12-12-12-10-10-10-10-|
E|-5-5-5-5-3-3-3-3-10-10-10-10--8--8--8--8-|-5-5-5-5-3-3-3-3-10-10-10-10--8--8--8--8-|


e|-----------------------------------------|-----------------------------------------|
B|-----------------------------------------|-----------------------------------------|
G|-----------------------------------------|-----------------------------------------|
D|-7-7-7-7-5-5-5-5-12-12-12-12-10-/-12-12--|-7-7-7-7-5-5-5-5-12-12-12-12-10-10-10-10-|
A|-7-7-7-7-5-5-5-5-12-12-12-12-10-/-12-12--|-7-7-7-7-5-5-5-5-12-12-12-12-10-10-10-10-|
E|-5-5-5-5-3-3-3-3-10-10-10-10--8-/-10-10--|-5-5-5-5-3-3-3-3-10-10-10-10--8--8--8--8-|


	Solo:

e|----------------------------------------|
B|----------------------------------------|
G|----------------------------------------|
D|-------12h14----------------------------|
A|-12h14-------12-10-7-10-7-10-7-14p12-12-|
E|----------------------------------------|x4


BBBBBBBBRRRRRRLLLLLLLLOOOOHHHHHHHHHH! A-HA-HA! YA YA YA!

e|---------------------------|
B|---------------------------|
G|---------------------------|
D|-----5h7-------------------|
A|-5h7-----5-3-0-3-0-3-7p5-5-|
E|---------------------------|x3

e|-------------------------------|--------------|
B|-------------------------------|--------------|
G|-------------------------------|--------------|
D|-----5h7-----------------------|--------------|
A|-5h7-----5-3-0-3-0-3-7p5-5-12~-|-5h7p5-7------|
E|-------------------------------|----------12/-|

	Verse:(Corb:bass)

e|-------------------------------------|
B|-------------------------------------|
G|-------------------------------------|
D|-------------------------------------|
A|-------------------------------------|
E|-5-5-5-5-3-3-3-3-10-10-10-10-8-8-8-8-|x6

  1,2,3,4,
  Middle of the road, is my private cul de sac.

   
	(this is where Dug kicks in)

e|-----------------------------------------|
B|-----------------------------------------|
G|-----------------------------------------|
D|-7-7-7-7-5-5-5-5-12-12-12-12-10-10-10-10-|
A|-7-7-7-7-5-5-5-5-12-12-12-12-10-10-10-10-|
E|-5-5-5-5-3-3-3-3-10-10-10-10--8--8--8--8-|x4

I can't get from the cab to the curb,
Without some little jerk on my back,
Don't harass me kid,
Can't you tell I'm going home, I'm tired as hell,
I'm not the cat I used to be,
I've got a kid, I'm thirty-three baby.


	Chorus:

e|-------------------------|
B|-------------------------|
G|-------------------------|
D|-7--5--3-3-3-3-3-3-3-3-3-|
A|-7--5--3-3-3-3-3-3-3-3-3-|
E|-5--3--1-1-1-1-1-1-1-1-1-|x7
PM->       . . . . . . . .          

	Get in the road.
	Come on now,
	In the middle of the road, yeah.
	Come on baby,
	Get in the road.
	Come on now,
	In the middle of the road, yeah.

e|------------------------------------------|
B|------------------------------------------|
G|------------------------------------------|
D|-7--5--3-3-3-3-3-3-3-3-3-3-3-3-3-3-3-3-3-7|
A|-7--5--3-3-3-3-3-3-3-3-3-3-3-3-3-3-3-3-3-7|
E|-5--3--1-1-1-1-1-1-1-1-1-1-1-1-1-1-1-1-1-5|
PM->       . . . . . . . . . . . . . . . .  


	Outro:


e|-----------------------------------------|-----------------------------------------|
B|-----------------------------------------|-----------------------------------------|
G|-----------------------------------------|-----------------------------------------|
D|-7-7-7-7-5-5-5-5-12-12-12-12-10-10-10-10-|-7-7-7-7-5-5-5-5-12-12-12-12-10-10-10-10-|
A|-7-7-7-7-5-5-5-5-12-12-12-12-10-10-10-10-|-7-7-7-7-5-5-5-5-12-12-12-12-10-10-10-10-|
E|-5-5-5-5-3-3-3-3-10-10-10-10--8--8--8--8-|-5-5-5-5-3-3-3-3-10-10-10-10--8--8--8--8-|

e|-----------------------------------------|--------------------------------------------|
B|-----------------------------------------|--------------------------------------------|
G|-----------------------------------------|--------------------------------------------|
D|-7-7-7-7-5-5-5-5-12-12-12-12-10-10-10-10-|-7-7-7-7-5-5-5-5-12-12-12-12-10-10-10-10-12-|
A|-----------------------------------------|--------------------------------------------|
E|-----------------------------------------|--------------------------------------------|

--------------------------------------------------------------------------------------------

~=vibrato
h=hammer-on
p=pull-off
/=slide
.=palm mute
Tap to rate this tab
# A B C D E F G H I J K L M N O P Q R S T U V W X Y Z