Song name
# A B C D E F G H I J K L M N O P Q R S T U V W X Y Z

The Smalls - What I Need To Carry On tab

			----------------------------------------
			| What I Need To Carry On - The Smalls.|
			----------------------------------------

tabbed by: ultimatelefty

Song: What I Need To Carry On
Band: The Smalls.
Album:My Dear Little Angle
Label:smallsong

Amazing song by an amazing underrated band and a fun song to play. I hope 
you guys all enjoy, please rate, and comment, and have fun with the Song!!


Intro:

e|------------------------|------------------------|------------------------|
B|------------------------|------------------------|------------------------|
G|-8-8\--11-11-x-10/-11-x-|-8-8\--11-11-x-10/-11-x-|-8-8\--11-11-x-10/-11-x-|
D|-8-8\--11-11-x-10/-11-x-|-8-8\--11-11-x-10/-11-x-|-8-8\--11-11-x-10/-11-x-|
A|-6-6\---9--9-x--8/--9-x-|-6-6\---9--9-x--8/--9-x-|-6-6\---9--9-x--8/--9-x-|
E|------------------------|------------------------|------------------------|

e|------------------------|------------------------|------------------------|
B|------------------------|------------------------|------------------------|
G|-8-8\--11-11-x-8\-------|-------------8----------|------------------------|
D|-8-8\--11-11-x-8\-------|-------/8---------------|------------------------|
A|-6-6\---9--9-x-6\-------|-6-6~-------------------|-6~~~-------------------|
E|------------------------|------------------------|-------------3b------br-|

e|------------------------|------------------------|
B|------------------------|------------------------|
G|-------------6----------|------------------------|
D|-------6----------------|------------------------|
A|-6~~~-------------------|------------------------|
E|------------------------|-3b------------------br-|



Verse 1:

e|-18--17--16-15-14-13--12----------------|
B|-------------------------16-15-14-13-12-|
G|----------------------------------------|
D|----------------------------------------|
A|----------------------------------------|
E|----------------------------------------|x3

e|-18--17--16-15-14-13--12-------------------|
B|-------------------------16-15-14-13-12----|
G|----------------------------------------9\-|
D|----------------------------------------7\-|
A|-------------------------------------------|
E|-------------------------------------------|


Chorus:

  I hope that you can tell me what I need to carry on...
e|-----------------------------------------------------|
B|-----------------------------------------------------|
G|-----------------------------------------------------|
D|-----------------------------------------------------|
A|-----------------------------------------------------|
E|-----------------------------------------------------|

e|--------------------------------|
B|-11-10-9-8----------------------|
G|-----------11-10-9-8------------|
D|---------------------12-11-10-9-|
A|--------------------------------|
E|--------------------------------|


Verse 2:


e|-18--17--16-15-14-13--12----------------|-18--17--16-15-14-13--12----------------|
B|-------------------------16-15-14-13-12-|-------------------------16-15-14-13-12-|
G|----------------------------------------|----------------------------------------|
D|----------------------------------------|----------------------------------------|
A|----------------------------------------|----------------------------------------|
E|----------------------------------------|----------------------------------------|


e|-18--17--16-15-14-13--12----------------|-18--17--16-15-14-13--12------------------|
B|-------------------------16-15-14-13-12-|-------------------------16-15-14-13-12---|
G|----------------------------------------|------------------------------------------|
D|----------------------------------------|----------------------------------------8-|
A|----------------------------------------|----------------------------------------6-|
E|----------------------------------------|------------------------------------------|



Chorus:

 I hope that you can tell me what I need to carry on...
e|-----------------------------------------------------|
B|-----------------------------------------------------|
G|-----------------------------------------------------|
D|-----------------------------------------------------|
A|-----------------------------------------------------|
E|-----------------------------------------------------|

e|--------------------------------|
B|-11-10-9-8----------------------|
G|-----------11-10-9-8------------|
D|---------------------12-11-10-9-|
A|--------------------------------|
E|--------------------------------|

e|--------------------------------|
B|-11-10-9-8----------------------|
G|-----------11-10-9-8------------|
D|---------------------12-11-10-9-|
A|--------------------------------|
E|--------------------------------|

At I'm pretty sure at that time that the bass does something like this:

e|--------------------------------|
B|--------------------------------|
G|--------------------------------|
D|-8--7--6-5----------------------|
A|-----------9--8--7-6------------|
E|---------------------10-9--8--7-|


Verse 3:

e|-18--17--16-15-14-13--12----------------|-18--17--16-15-14-13--12----------------|
B|-------------------------16-15-14-13-12-|-------------------------16-15-14-13-12-|
G|----------------------------------------|----------------------------------------|
D|----------------------------------------|----------------------------------------|
A|----------------------------------------|----------------------------------------|
E|----------------------------------------|----------------------------------------|


e|-18--17--16-15-14-13--12----------------|-18--17--16-15-14-13--12-------------------|
B|-------------------------16-15-14-13-12-|-------------------------16-15-14-13-12----|
G|----------------------------------------|----------------------------------------9\-|
D|----------------------------------------|----------------------------------------7\-|
A|----------------------------------------|-------------------------------------------|
E|----------------------------------------|-------------------------------------------|


Chorus:

  I hope that you can tell me what I need to carry on...
e|-----------------------------------------------------|
B|-----------------------------------------------------|
G|-----------------------------------------------------|
D|-----------------------------------------------------|
A|-----------------------------------------------------|
E|-----------------------------------------------------|


e|--------------------------------|
B|-11-10-9-8----------------------|
G|-----------11-10-9-8------------|
D|---------------------12-11-10-9-|
A|--------------------------------|
E|--------------------------------|


Little Solo:

e|-----------------------|-------------------------------|-----------------------|
B|-----------------------|-------------------------------|-----------------------|
G|-----------------------|-------------------------------|-----------------------|
D|-----------------------|-------------------------------|-----------------------|
A|-6~-4~-3-4-3-4-3-3/6---|-6~--9-4~--3-4-3-4-3-4-3tr-\---|-6~-4~-3-4-3-4-3-3/6---|
E|---------------------6-|-------------------------------|---------------------6-|


e|----------------------------------|-------------------------------------|
B|----------------------------------|-------------------------------------|
G|--------------------------------8-|----------8--------------------8-\---|
D|--------------------------------8-|----------8--------------------8-\---|
A|-6~--9--4~--3-4-3-4-3-4-3tr-----6-|----------6--------------------6-\---|
E|----------------------------------|-------------------------------------|


Bridge:


                                                        \
e|----------------------|----------------------|         \ 
B|----------------------|----------------------|          \
G|----------------------|----------------------|           \    
D|-8-8\-x-11-11-x-10-xx-|-8-8\-x-11-11-x-10-xx-|            \
A|-6-6\-x--9--9-x--8-xx-|-6-6\-x--9--9-x--8-xx-|             |
E|----------------------|----------------------|             |
                                                             |Play this 4 times
e|----------------------|------------------------------|     |
B|----------------------|------------------------------|     |
G|----------------------|------------------------------|    /
D|-8-8\-x-11-11-x-10-xx-|-7-7--7-7-7-7-8-8-10-10-10-10-|   /
A|-6-6\-x--9--9-x--8-xx-|-5-5--5-5-5-5-6-6--8--8--8--8-|  /
E|----------------------|------------------------------| /
                                                        /


Verse 4:


e|-18--17--16-15-14-13--12----------------|-18--17--16-15-14-13--12----------------|
B|-------------------------16-15-14-13-12-|-------------------------16-15-14-13-12-|
G|----------------------------------------|----------------------------------------|
D|----------------------------------------|----------------------------------------|
A|----------------------------------------|----------------------------------------|
E|----------------------------------------|----------------------------------------|


e|-18--17--16-15-14-13--12----------------|-18--17--16-15-14-13--12------------------|
B|-------------------------16-15-14-13-12-|-------------------------16-15-14-13-12---|
G|----------------------------------------|------------------------------------------|
D|----------------------------------------|----------------------------------------8-|
A|----------------------------------------|----------------------------------------6-|
E|----------------------------------------|------------------------------------------|



Chorus:

 I hope that you can tell me what I need to carry on...
e|-----------------------------------------------------|
B|-----------------------------------------------------|
G|-----------------------------------------------------|
D|-----------------------------------------------------|
A|-----------------------------------------------------|
E|-----------------------------------------------------|


e|--------------------------------|
B|-11-10-9-8----------------------|
G|-----------11-10-9-8------------|
D|---------------------12-11-10-9-|
A|--------------------------------|
E|--------------------------------|x3


e|-------------------------------------|
B|-11-10-9-8---------------------------|
G|-----------11-10-9-8------------8-8\-|
D|---------------------12-11-10-9-8-8\-|
A|--------------------------------6-6\-|
E|-------------------------------------|

Bass thing again same time as that^

e|-------------------------------------|
B|-------------------------------------|
G|-------------------------------------|
D|-8--7--6-5---------------------------|
A|-----------9--8--7-6------------6-6\-|
E|---------------------10-9--8--7------|


Lyrics:


I need a good knife, that holds an edge right,
I need a good knife to cut out a lying toungue,
I need a good knife.

I hope that you can tell me what I need to carry on

I need some rawhide, let's see the flesh side,
I need a rawhide thong that tightens as it dries,
I need some raw hide.

I hope that you can tell me what I need to carry on

I need a pack mule, I'll need some camp fuel,
I need a pack mule that can carry a body, maybe two,
I need a pack mule.

I hope that you can tell me what I need to carry on.

(Trappers gonna get you, gonna track you down and let you,
Think You're Gone til he can hit you with it, Trigger Fingers Itchin'
He Won't rush it, he'll resist; You've no idea how tough it is
To beat a trapper at his own game)

You Can run upriver,
And still hear him whisper,
"Girl come Hither; Beat a trapper at his own game"

(Trappers gonna get you, gonna track you down and let you,
Think You're Gone til he can hit you with it, Trigger Fingers Itchin'
He Won't rush it, he'll resist; You've no idea how tough it is
To beat a trapper at his own game)

You Can run upriver,
And still hear him whisper,
"Girl come Hither; Beat a trapper at his own game"

(Trappers gonna get you, gonna track you down and let you,
Think You're Gone til he can hit you with it, Trigger Fingers Itchin'
He Won't rush it, he'll resist; You've no idea how tough it is
To beat a trapper at his own game)

You Can run upriver,
And still hear him whisper,
"Girl come Hither; Beat a trapper at his own game"

Has there been a women through
You sold a Rifle to?
Has There been a woman through and maybe a coward with her too?
Has there been a woman through?

I hope that you can tell me what I need to carry on.


Well there you have it, ENJOY!!
-------------------------------------------------------------------------------------------
/-slide up
\-slide down
x-mute
b-bend
r-release bend
~-vibrato
tr-trill
Tap to rate this tab
 
# A B C D E F G H I J K L M N O P Q R S T U V W X Y Z