Song name
# A B C D E F G H I J K L M N O P Q R S T U V W X Y Z

The Smalls - Easter tab

Song: Easter
Band: The Smalls.
Album: Waste and Tragedy
Label: Cargo Records
Written and Performed by: The Smalls.
Tabbed by: ultimatelefty

Please rate, comment, and enjoy!

Drop D

Intro:

e|-----------------------------------------------|
B|-----------------------------------------------|
G|-----------------------------------------------|
D|-222222222222222222---222-2b-2b-2b---222-2-222-|
A|-222222222222222222---222-2b-2b-2b---222-2-222-|
D|-222222222222222222---222-2b-2b-2b---222-2-222-|

e|-------------------------|
B|-------------------------|
G|-------------------------|
D|-222-2--222-2--222-0-0-0-|
A|-222-2--222-2--222-0-0-0-|
D|-222-2--222-2--222-0-0-0-|x4 (when hitting the open notes, mute after hitting each open note)

Verse:

e|-------------------------|
B|-------------------------|
G|-------------------------|
D|-222-2--222-2--222-0-0-0-|
A|-222-2--222-2--222-0-0-0-|
D|-222-2--222-2--222-0-0-0-|x7

e|-----------------------------------|
B|-----------------------------------|
G|-----------------------------------|
D|-222-2--222-2--222-0-0-0-0-0-0-0-0-|
A|-222-2--222-2--222-0-0-0-0-0-0-0-0-|
D|-222-2--222-2--222-0-0-0-0-0-0-0-0-|

Chorus:

e|-----------|-----------|-----------|-----------|
B|-----------|-----------|-----------|-----------|
G|-4/5-x-4-x-|-4/5-x-4-x-|-4/5-x-4-x-|-4/5-------|
D|-4/5-x-4-x-|-4/5-x-4-x-|-4/5-x-4-x-|-4/5-------|
A|-2/3-x-2-x-|-2/3-x-2-x-|-2/3-x-2-x-|-2/3-------|
D|-----------|-----------|-----------|-----------|x4

Post-Chorus:

e|-------------------------|
B|-------------------------|
G|-------------------------|
D|-222-2--222-2--222-0-0-0-|
A|-222-2--222-2--222-0-0-0-|
D|-222-2--222-2--222-0-0-0-|x4

Verse:

e|-------------------------|
B|-------------------------|
G|-------------------------|
D|-222-2--222-2--222-0-0-0-|
A|-222-2--222-2--222-0-0-0-|
D|-222-2--222-2--222-0-0-0-|x7

e|-----------------------------------|
B|-----------------------------------|
G|-----------------------------------|
D|-222-2--222-2--222-0-0-0-0-0-0-0-0-|
A|-222-2--222-2--222-0-0-0-0-0-0-0-0-|
D|-222-2--222-2--222-0-0-0-0-0-0-0-0-|

Chorus:

e|-----------|-----------|-----------|-----------|
B|-----------|-----------|-----------|-----------|
G|-4/5-x-4-x-|-4/5-x-4-x-|-4/5-x-4-x-|-4/5-------|
D|-4/5-x-4-x-|-4/5-x-4-x-|-4/5-x-4-x-|-4/5-------|
A|-2/3-x-2-x-|-2/3-x-2-x-|-2/3-x-2-x-|-2/3-------|
D|-----------|-----------|-----------|-----------|x4

Bridge:

e|-----------------------------------1-1--1--1--1--1\--|
B|-----------------------------------2-2--2--2--2--2\--|
G|-----------------------------------3-3--3--3--3--3\--|
D|-2---0-0-0-222---2-0-0-0-0-0-0-0-0-3-3--3--3--3--3\--|
A|-2---0-0-0-222---2-0-0-0-0-0-0-0-0-1-1--1--1--1--1\--|
D|-2---0-0-0-222---2-0-0-0-0-0-0-0-0-------------------|

e|-1-1--1--1--1--1--|
B|-2-2--2--2--2--2--|
G|-3-3--3--3--3--3--|
D|-3-3--3--3--3--3--|
A|-1-1--1--1--1--1--|
D|------------------|x6

e|-1-1--1--1--1--1-------0-|
B|-2-2--2--2--2--2-----2---|
G|-3-3--3--3--3--3---3-----|
D|-3-3--3--3--3--3---------|
A|-1-1--1--1--1--1---------|
D|-------------------------|

e|-------1---|
B|-----2-----|
G|---3-------|
D|-3---------|
A|-----------|
D|-----------|x4

e|-------0---|
B|-----2-----|
G|---3-------|
D|-3---------|
A|-----------|
D|-----------|x4

e|---------------------------------|-----------------------------------|
B|---------------------------------|-----------------------------------|
G|-6-6-6-6-5-5-5-5-4-4-4-4-3-3-3-3-|-9-9-9-9-8-8-8-8-7-7-7-7-7-7-7-7-7-|
D|-6-6-6-6-5-5-5-5-4-4-4-4-3-3-3-3-|-9-9-9-9-8-8-8-8-7-7-7-7-7-7-7-7-7-|
A|-4-4-4-4-3-3-3-3-2-2-2-2-1-1-1-1-|-7-7-7-7-6-6-6-6-5-5-5-5-5-5-5-5-5-|
D|---------------------------------|-----------------------------------|

Chorus:

e|-----------|-----------|-----------|-----------|
B|-----------|-----------|-----------|-----------|
G|-4/5-x-4-x-|-4/5-x-4-x-|-4/5-x-4-x-|-4/5-------|
D|-4/5-x-4-x-|-4/5-x-4-x-|-4/5-x-4-x-|-4/5-------|
A|-2/3-x-2-x-|-2/3-x-2-x-|-2/3-x-2-x-|-2/3-------|
D|-----------|-----------|-----------|-----------|x4

Outro:

e|-----------|-----------|-----------|-----------|
B|-----------|-----------|-----------|-----------|
G|-4/5-x-4-x-|-4/5-x-4-x-|-4/5-x-4-x-|-4/5-------|
D|-4/5-x-4-x-|-4/5-x-4-x-|-4/5-x-4-x-|-4/5-------|
A|-2/3-x-2-x-|-2/3-x-2-x-|-2/3-x-2-x-|-2/3-------|
D|-----------|-----------|-----------|-----------|x2

Lyrics:

We can hear the furnace rumble,
on the other side of the wall.
As we listen to them moaning, 
in their bedroom down the hall.
But, Alls we do is sit there,
crosslegged on the floor.
It's a hopeless situation,
not discounting what's in store.

Once with my Whale Bone

We used to like to park near,
that little bridge just down the road.
A couple of times I thought I'd dreamed him, 
and that he'd died out in the snows.
It's a hopeless situation, was all we ever said.
So I s'pose he must've slipped out,
that hole in the back fence.

Once with my Whale Bone

It's what we got to believe,
from what we'd come to perceive, 
before you'd gone and pulled everything,
from hidden hand up your sleeve.
You told us all you had nothing left
then you just up and left
and your momma she cried for days.
That narwahl horn still promes our deeper waters. 
from Jude to Jonah we'll never get out of the whale,
We can't get out of the way.

Once with my Whale Bone

************************************

| /   slide up
| \   slide down
| h   hammer-on
| p   pull-off
| ~   vibrato
| +   harmonic
| x   Mute note
| b   Bend
| pb  Pre-bend
| br  Bend release
| pbr Pre-bend release
| brb Bend release bend

************************************


Tap to rate this tab
# A B C D E F G H I J K L M N O P Q R S T U V W X Y Z