Song name
# A B C D E F G H I J K L M N O P Q R S T U V W X Y Z

The Smalls - Driving Through Detox tab

Song: Driving Through Detox
Band: The Smalls
Album: The Smalls
Label: Smallsong/Independent
Written By: The Smalls
Tabbed By: ultimatelefty
Tuning: Drop D

Here's Driving Through Detox, the first song song off of the The Smalls' debut self-titled
album, which in my opinion is a freaking amazing album from start to finish 
(as are all of their albums)! Raw and gritty.
I play the song in drop D (even though you could play it in Standard tuning) because in my opinion
the Pre-Verse/verse riff is difficult to play with regular power chords. Hopefully I did a good 
job, please rate, comment, and enjoy!!

Intro:

e|------------------------------------------------------------------------------------|
B|------------------------------------------------------------------------------------|
G|------------------------------------------------------------------------------------|
D|-7-5-5-x-5-x-5-x-5-5-7-5-5-x-5-x-5-x-5-5-7-5-5-x-5-x-5-x-5-5-7-5-5-x-5-x-5-x-5/6/7--|
A|-7-5-5-x-5-x-5-x-5-5-7-5-5-x-5-x-5-x-5-5-7-5-5-x-5-x-5-x-5-5-7-5-5-x-5-x-5-x-5/6/7--|
D|-7-5-5-x-5-x-5-x-5-5-7-5-5-x-5-x-5-x-5-5-7-5-5-x-5-x-5-x-5-5-7-5-5-x-5-x-5-x-5/6/7--|

e|---------------------------------------|--------------|
B|---------------------------------------|---(Guitar)---|
G|-------------(Bass Guitar)-------------|--------------|
D|---------------------------------------|-7777-7-7-7-7-|
A|-0-3-5-6-6-5-0-3-5-6-6-5-0-3-5-6-6-5-3-|-7777-7-7-7-7-|
D|---------------------------------------|-7777-7-7-7-7-|

e|---------------------------------------|------------------|
B|---------------------------------------|-----(Guitar)-----|
G|-------------(Bass Guitar)-------------|------------------|
D|---------------------------------------|-7777777777777777-|
A|-0-3-5-6-6-5-0-3-5-6-6-5-0-3-5-6-6-5-3-|-7777777777777777-|
D|---------------------------------------|-7777777777777777-|

e|---------------------------------------------------------------------------|
B|---------------------------------------------------------------------------|
G|---------------------------------------------------------------------------|
D|-7/10-12-13-13-12--7/10-12-13-13-12--7/10-12-13-13-12-10--7777777777777777-|
A|-7/10-12-13-13-12--7/10-12-13-13-12--7/10-12-13-13-12-10--7777777777777777-|
D|-7/10-12-13-13-12--7/10-12-13-13-12--7/10-12-13-13-12-10--7777777777777777-|x2

Verse:

e|---------------------------------------------------------------------------|
B|---------------------------------------------------------------------------|
G|---------------------------------------------------------------------------|
D|-7/10-12-13-13-12--7/10-12-13-13-12--7/10-12-13-13-12-10--7777777777777777-|
A|-7/10-12-13-13-12--7/10-12-13-13-12--7/10-12-13-13-12-10--7777777777777777-|
D|-7/10-12-13-13-12--7/10-12-13-13-12--7/10-12-13-13-12-10--7777777777777777-|x2

e|-----------------------------------------------------------------------------|
B|-----------------------------------------------------------------------------|
G|-----------------------------------------------------------------------------|
D|-7-7-10/13-7-7-7-7-7-7-10/13-7-7-7-7-7-7-10/13-7-7-7-7-7-7-10-10-9-9-8-8-7-7-|
A|-7-7-10/13-7-7-7-7-7-7-10/13-7-7-7-7-7-7-10/13-7-7-7-7-7-7-10-10-9-9-8-8-7-7-|
D|-7-7-10/13-7-7-7-7-7-7-10/13-7-7-7-7-7-7-10/13-7-7-7-7-7-7-10-10-9-9-8-8-7-7-|x4
Pm . .       . . . . . .       . . . . . .       . . . . . .  .  . . . . . . .

Chorus:

e|-------------------------------------------------------|
B|-------------------------------------------------------|
G|-------------------------------------------------------|
D|-7--5--10--7--5--10--7--5--10--12-12-12-12-12-12-12-12-|
A|-7--5--10--7--5--10--7--5--10--12-12-12-12-12-12-12-12-|
D|-7--5--10--7--5--10--7--5--10--12-12-12-12-12-12-12-12-|x3
Pm                                .  .  .  .  .  .  .  .

e|--------------------------------------------------|
B|--------------------------------------------------|
G|--------------------------------------------------|
D|-7--5--10--7--5--10--7--5--10-7-5-5-x-5-x-5-x-5-6-|
A|-7--5--10--7--5--10--7--5--10-7-5-5-x-5-x-5-x-5-6-|
D|-7--5--10--7--5--10--7--5--10-7-5-5-x-5-x-5-x-5-6-|

Post-Chorus:

e|---------------------------------------------------------------------------|
B|---------------------------------------------------------------------------|
G|---------------------------------------------------------------------------|
D|-7/10-12-13-13-12--7/10-12-13-13-12--7/10-12-13-13-12-10--7777777777777777-|
A|-7/10-12-13-13-12--7/10-12-13-13-12--7/10-12-13-13-12-10--7777777777777777-|
D|-7/10-12-13-13-12--7/10-12-13-13-12--7/10-12-13-13-12-10--7777777777777777-|x2


Verse:

e|---------------------------------------------------------------------------|
B|---------------------------------------------------------------------------|
G|---------------------------------------------------------------------------|
D|-7/10-12-13-13-12--7/10-12-13-13-12--7/10-12-13-13-12-10--7777777777777777-|
A|-7/10-12-13-13-12--7/10-12-13-13-12--7/10-12-13-13-12-10--7777777777777777-|
D|-7/10-12-13-13-12--7/10-12-13-13-12--7/10-12-13-13-12-10--7777777777777777-|x2

e|-----------------------------------------------------------------------------|
B|-----------------------------------------------------------------------------|
G|-----------------------------------------------------------------------------|
D|-7-7-10/13-7-7-7-7-7-7-10/13-7-7-7-7-7-7-10/13-7-7-7-7-7-7-10-10-9-9-8-8-7-7-|
A|-7-7-10/13-7-7-7-7-7-7-10/13-7-7-7-7-7-7-10/13-7-7-7-7-7-7-10-10-9-9-8-8-7-7-|
D|-7-7-10/13-7-7-7-7-7-7-10/13-7-7-7-7-7-7-10/13-7-7-7-7-7-7-10-10-9-9-8-8-7-7-|x4
Pm . .       . . . . . .       . . . . . .       . . . . . .  .  . . . . . . .

Chorus:

e|-------------------------------------------------------|
B|-------------------------------------------------------|
G|-------------------------------------------------------|
D|-7--5--10--7--5--10--7--5--10--12-12-12-12-12-12-12-12-|
A|-7--5--10--7--5--10--7--5--10--12-12-12-12-12-12-12-12-|
D|-7--5--10--7--5--10--7--5--10--12-12-12-12-12-12-12-12-|x3
Pm                                .  .  .  .  .  .  .  .

e|------------------------------|
B|------------------------------|
G|------------------------------|
D|-7--5--10--7--5--10--7--5--10-|
A|-7--5--10--7--5--10--7--5--10-|
D|-7--5--10--7--5--10--7--5--10-|

e|-------------------------------------------------------------|
B|-------------------------------------------------------------|
G|-------------------------------------------------------------|
D|-7-5-5-x-5-x-5-x-5-5-7-5-5-x-5-x-5-x-5-5-7-5-5-x-5-x-5-x-5-5-|
A|-7-5-5-x-5-x-5-x-5-5-7-5-5-x-5-x-5-x-5-5-7-5-5-x-5-x-5-x-5-5-|
D|-7-5-5-x-5-x-5-x-5-5-7-5-5-x-5-x-5-x-5-5-7-5-5-x-5-x-5-x-5-5-|

Absolutely amazing bass lick by Corb, then outro:

e|-------------------------------------------------------------|
B|-------------------------------------------------------------|
G|-------------------------------------------------------------|
D|-5/6--7/10-12-13-13-12--7/10-12-13-13-12--7/10-12-13-13-12-7-|
A|-5/6--7/10-12-13-13-12--7/10-12-13-13-12--7/10-12-13-13-12-7-|
D|-5/6--7/10-12-13-13-12--7/10-12-13-13-12--7/10-12-13-13-12-7-|


************************************

| /   slide up
| \   slide down
| h   hammer-on
| p   pull-off
| ~   vibrato
| +   harmonic
| x   Mute note
| b   Bend
| pb  Pre-bend
| br  Bend release
| pbr Pre-bend release
| brb Bend release bend

************************************


Tap to rate this tab
 
# A B C D E F G H I J K L M N O P Q R S T U V W X Y Z