Song name
# A B C D E F G H I J K L M N O P Q R S T U V W X Y Z

The Smart - City Lights tab

                         City Lights
                             by
                          The Smart

Intro : 2x

e|9--9--9---9----12-x-x-12/14---------------12-x-x-12/14-|
b|--------10--7------------------------7-----------------|
g|------------------------------9--9--9-9----------------|
d|----------------------------------------9--------------|
a|-------------------------------------------------------|
E|-------------------------------------------------------|


Verse: Same as the intro but quieter and with some sort of flanger or synth

4x
e|9--9--9---9----12-x-x-12/14---------------12-x-x-12/14-|
b|--------10--7------------------------7-----------------|
g|------------------------------9--9--9-9----------------|
d|----------------------------------------9--------------|
a|-------------------------------------------------------|
E|-------------------------------------------------------|

                    Oh my god were going down

Chorus:
4x
e|-----------------------------------------------------------------|
b|-----------------------------------------------------------------|
g|1111111111111111-------------------------14-14-14-14-14-14-14-14-|
d|1111111111111111-12-12-12-12-12-12-12-12-14-14-14-14-14-14-14-14-|
a|-9-9-9-9-9-9-9-9-12-12-12-12-12-12-12-12-12-12-12-12-12-12-12-12-|
E|-----------------10-10-10-10-10-10-10-10-------------------------|

--------------------------|
--------------------------|
--------------------------|
-14-14-14-14-14-14-14-14--|
-14-14-14-14-14-14-14-14--|
-12-12-12-12-12-12-12-12--|

Verse 2:

Chorus 2:

Bridge:

e|---------------------------|
b|---------------------------|
g|-7---------------9-7-9-11--|
d|-7---------------9-7-9-11--|
a|-5---------------7-5-7--9--|
E|---------------------------|

Chorus:2x

End

This my fist tab that I have ever done so let me know if I should be doing something 
different.  Hope you enjoy :)

http://www.thesmart.com.au/
Tap to rate this tab
# A B C D E F G H I J K L M N O P Q R S T U V W X Y Z