Song name
# A B C D E F G H I J K L M N O P Q R S T U V W X Y Z

The Smith Street Band - Young Drunk tab

The Smith Street Band- Young Drunk

The chords were already posted on Ultimate Guitar so full credit to that person for the 
chord. I just tabbed out the riffs.

Smith Street Band Rock.

Intro Riff:
E||----------------------|----------------------|----------------------|
B||----------------------|----------------------|----------------------|
G||----------------------|----------------------|----------------------|
D||----------------------|----------------------|-----------------2----|
A||-----------------0----|--2----5----5----5----|--5----2----5---------|
E||--3----3----3---------|----------------------|----------------------|

----------------------|----------------------|----------------------|
----------------------|----------------------|----------------------|
----------------------|-----------------2----|--2-------------------|
--2----2----4----5----|--0----0----0---------|-------4----2----0----|
----------------------|----------------------|----------------------|
----------------------|----------------------|----------------------|

----------------------|----------------------|----------------------|
----------------------|----------------------|----------------------|
------------0---------|-------0--------------|-------0--------------|
-------2--------------|--2--------------4----|------------4---------|
--3--------------3----|------------5---------|--5--------------5----|
----------------------|----------------------|----------------------|

------------------------|--------|
------------------------|--------|
------------------------|---0----|
--4----------9----------|---9----|
-------10---------10----|--10----|
------------------------|--------|

Chords:

G                       D
one day there will come a time when
     Em                  Bm                 C
the person you are named after dies
                  D/G                              G
and all of a sudden you're the only one

left

        G                         D                Em
and out of something as insincere as pride
                      Bm                 C
you'll change the way you turned on time
                                  D
to remember the smiles
                                       G               D
as we stood out front of the little church
Em                Bm                   C
the traffic just close enough to drown out

whatever we heard the family say
             D
as they waved the hearse away

      G
and tonight i'm getting young
           C
drunk
                                         Em
walking down the streets where i grew up
                                    D
knowing that they're to blame it
                          C                  G
all the red brick fences look the same


i'm getting young
         C
drunk
                                             Em
walking round the streets where i grew up
                                    D
knowing that they're to blame it
                       C                     G
all the red brick fences look the same
G C Em D
whoa oh

       G                                D
and all alone in the suburbs
                                              C
i can make as much noise as i want
                                           D
without disturbing more than the wind

in the trees and
 G                      D
passing cars and security lights
Em                        Bm
guide my way home through the night
       C
i feel safe here
D                                                                    C
and the neighbours aren't close enough to hate me



      G
and tonight i'm getting young
           C
drunk
                                         Em
walking down the streets where i grew up
                                    D
knowing that they're to blame it
                        C                    G
all the red brick fences look the same


i'm getting young
         C
drunk
                                             Em
walking round the streets where i grew up
                                    D
knowing that they're to blame it
                        C                    G
all the red brick fences look the same
G C Em D
whoa oh

Other Riff plays here:
----------------------|----------------------|--------------------------|
----------------------|----------------------|--------------------------|
----------------------|----------------------|--------------------------|
----------------------|----------------------|--------------------------|
--2----2----2----2----|--2----2----2----2----|---9-----9-----9-----9----|
--3----3----3----3----|--3----3----3----3----|--10----10----10----10----|

--------------------------|--------------------------|
--------------------------|--------------------------|
--------------------------|--------------------------|
--------------------------|--------------------------|
---9-----9-----9-----9----|---9-----9-----9-----9----|
--10----10----10----10----|--10----10----10----10----|

--------------------------|--------------------------|
--------------------------|--------------------------|
--------------------------|--------------------------|
--------------------------|--------------------------|
---9-----9-----9-----9----|--------------------------|
--10----10----10----10----|--12----12----12----15----|

--------------------------|--------------------------|
--------------------------|--------------------------|
--------------------------|--------------------------|
--------------------------|--------------------------|
--------------------------|--------------------------|
--15----15----17----17----|--19----19----19----17----|

--------------------------|--------------------------|
--------------------------|--------------------------|
--------------------------|--------------------------|
--------------------------|--------------------------|
--------------------------|--------------------------|
--17----17----15----12----|--10----10----10----10----|


            G
and i've finally found a home
      D                                                                Em
in a handful of people i was lucky enough to bump into
                D                               G
we act like pessimists but we're in love with it


      G
and Iím in love with you
           D
and our tiny bed in the upstairs front room
       Em
of a rundown terrace house
            D
which is obviously perfect as it sounds
G            D
even in the summer when the
Em                            Bm                 C
cardboard window that you tape on everyday
                                  D
falls out and wakes us up



      G
and tonight i'm getting young
           C
drunk
                                         Em
walking round the streets where i grew up
                                    D
knowing that they're to blame it
                         C                   G
all the red brick fences look the same


i'm getting young
         C
drunk
                                             Em
walking round the streets where i grew up
                                    D
knowing that they're to blame it
                        C                    G
all the red brick fences look the same
G C Em D
whoa oh



Make you see these guys live. They will blow you away!
Tap to rate this tab
 
# A B C D E F G H I J K L M N O P Q R S T U V W X Y Z