Song name
# A B C D E F G H I J K L M N O P Q R S T U V W X Y Z

The Snake The Cross The Crown - Cakewalk tab

-----------------------------------------------------------------------------
		      Cakewalk - The Snake The Cross The Crown
-----------------------------------------------------------------------------
Tabbed by: louis
Email: spooner954@aol.com

Tuning:Eadgbe

so i'm 88% and no one else had one for this song. hopefully this will at least put
on the right track to tab it out so that i can play it right ;)... thats me winking at 
someone...

F	(xx3211)
C	(x32010)
Dm7	(xx0211)
Fmaj9(no 3rd)

screw around with the basic progression. whenever the electric kicks in its pretty much
what the acoustic is playing


       F
e|-----------1----------1-------1------------------------------------------|
B|-------1-----1---1--1---1---1---1---------1-----------1-------1----------|
G|----------2----2--2-------3---------2---2---2---2---2---2---2---2--------|
D|-----3----------------------------3---3-------3---3-------3--------------|
A|-------------------------------------------------------------------------|
E|-------------------------------------------------------------------------|
       C                              D9                    C
e|-------------------------------------------------------------------------|
B|------------1-----------1-------1----------1-----------1---------1-------|
G|-------0------0---0---0---0---0-------2------2---2---2---2-----0---0-----|
D|-----2----2-----2---2-------3-------0----0-----0---0---------2-----------|
A|-------------------------------------------------------------------------|
E|-------------------------------------------------------------------------|

this number is also thrown in at the end of it right before the electric comes in

e|-------------------|
B|---------1---------|
G|-----0-----0-------|
D|---2---2-----2-----|
A|-------------------|
E|-------------------|

these are the chords when its just the electric when the drums come in. listen for
pattern

      F          C   D9    Fmaj9(no 3rd)
e|----1---1--1---0---1-----1----|
B|----1---1--1---1---1-----1----|
G|----2---3--2---0---2-----0----|
D|----3---3--3---2---0---0h2----|
A|---------------3--------------|
E|------------------------------|

solo: it's pretty much completely vibrato (notes are right, transpose at will, i like it
this) it sounds almost like it's done with a slide, which wouldn't surprise me.
e|-------------------------------------------------------------------------|
B|-------------------------------------------------------------------------|
G|-------------------------------------------------------------------------|
D|----/19(X8)-19b-19b-19(X10)-17-17--17-15-14--14-14--14h15p14-------------|
A|-------------------------------------------------------------17-15-17-17-|
E|-------------------------------------------------------------------------|

e|-------------------------------------------------------------------------|
B|-------------------------------------------------------------------------|
G|-------------------------------------------------------------------------|
D|---------------------------------15-15--15-12-15-12-15-12-15-12-10-------|
A|---17-15----15-17--12h15p12-15-17----------------------------------12----|
E|---------17--------------------------------------------------------------|

e|-------------------------------------------------------------------------|
B|-------------------------------------------------------------------------|
G|-------------------------------------------------------------------------|
D|---10~~~~~~~~-------10----12-10----10--12/14-14-14-12-14--14-14-14-------|
A|-----12~12~12~~~-12----12-------12---------------------------------------|
E|-------------------------------------------------------------------------|

e|-------------------------------------------------------------------------|
B|-------------------------------------------------------------------------|
G|-------------------------------------------------------------------------|
D|----14h15p14------------------------------------------15~~~~~~~~~~~~~~~~~|
A|-------------17-15-17-17-17-15---15-17-12h15p12-15-17--------------------|
E|-------------------------------17----------------------------------------|

hold the last note until clapping ceases


email if you have any questions.

enjoy :)


| /   slide up
| \   slide down
| h   hammer-on
| p   pull-off
| ~   vibrato
|(Xn) multiply by n
=============================================================================
Tap to rate this tab
# A B C D E F G H I J K L M N O P Q R S T U V W X Y Z