Song name
# A B C D E F G H I J K L M N O P Q R S T U V W X Y Z

The Soft Pack - Answer To Yourself tab

----------------------------------------------------------------------------
			 Answer To Yourself - The Soft Pack
----------------------------------------------------------------------------
Tabbed by: Stephen Healy
Email: steeeeeve13@hotmail.com

Tuning: Standard

Main Riff
   B    D     A     E
e|-7----10----14----12-----------------------------------------------------|
B|-7----10----14----12-----------------------------------------------------|
G|-8----11----14----13-----------------------------------------------------|
D|-9----12----14----14-----------------------------------------------------|
A|-9----12----12----14-----------------------------------------------------|
E|-7----10----------12-----------------------------------------------------|

Lead guitar riff
e|-------------------------------------------------------------------------|
B|-------------------------------------------------------------------------|
G|-------------------------------------------------------------------------|
D|-------------------------------------------------------------------------|
A|-------2-0-0h2-0-------4-4-44-2-0h2-0-2-2-22-5-55-55-5-4-4-2h4-0---------|
E|-0h3-5-----------0h3-5---------------------------------------------------|

Lead Guitar Bridge (at 0:52)
   B    D    A    E
e|-4----2----0----0--------------------------------------------------------|
B|-4----3----2----0--------------------------------------------------------|
G|-4----2----2----1--------------------------------------------------------|
D|-4----0----2----2--------------------------------------------------------|
A|-2---------0-------------------------------------------------------------|
E|-------------------------------------------------------------------------|

Chorus - Both Guitars
   G    E    D    A    G       E
e|-3----0----2----0----3-------0-------------------------------------------|
B|-0----0----3----2----0-------0-------------------------------------------|
G|-0----1----2----2----0-------1-------------------------------------------|
D|-0----2----0----2----0-------2-------------------------------------------|
A|-2----2---------0----2---------------------------------------------------|
E|-3----0--------------3---------------------------------------------------|

Lead Guitar - Solo Break (hard to tell what he plays, but i know he hits...)
e|-14-14-14-14-14-14-------------------------------------------------------|
B|-15-15-15-15-15-15-------------------------------------------------------|
G|-16-16-16-16-16-16--etc etc etc------------------------------------------|
D|-------------------------------------------------------------------------|
A|-------------------------------------------------------------------------|
E|-------------------------------------------------------------------------|

Final Chrous played twice, finish on B and let ring!

************************************

| /   slide up
| \   slide down
| h   hammer-on
| p   pull-off
| ~   vibrato
| +   harmonic
| x   Mute note
| b   Bend
| pb  Pre-bend
| br  Bend release
| pbr Pre-bend release
| brb Bend release bend

************************************
Tap to rate this tab
# A B C D E F G H I J K L M N O P Q R S T U V W X Y Z