The Soft Pack - Cmon chords

Highlighted       Show chord diagrams
C'MON - THE SOFT PACK
-------------------------------------------------------------------------------
Tabbed by: Sa-Ra
Email: larasati_choi@yahoo.com

Tuning: standard

Bass intro:
e|---------------------------------------------------------------------------------------|
B|---------------------------------------------------------------------------------------|
G|---------------------------------------------------------------------------------------|
D|---------------------------------------------------------------------------------------|
A|---------------------------------------------------------------------------------------|
E|2/3-3-3-33-333-------------------------------------------------------------------------|

G, Am, C  2x

G
Don't have the look,
don't have the name,
               Am
don't have the walk,
don't wanna talk,
C
don't have the say,
  G
in how your town,
                       Am     C
could be the next big thing.

G
Don't buy the wood,
just plant the seed,
              Am
wait 'til it grows into a tree,
C
find what it means,
G                          Am      C
army, navy, air force, and marines.

     G
Aw' c'mon
     Am   C
Aw' c'mon
     G
Aw' c'mon
     Am   C
Aw' c'mon

G
nowhere to shoot,
nowhere to aim,
          Am
no one to gun,
no one to blame,
C
no one with shame,
G
no one plays,
                 Am       C
to get what they deserve.

G
dont take a look
dont take a glance
               Am
don't take the hook
don't take a chance.
C
find what it means,
G                          Am      C
army, navy, air force, and marines.

     G
Aw' c'mon
     Am   C
Aw' c'mon
     G
Aw' c'mon
     Am   C
Aw' c'mon


e|55-3--55-3--77-5--77-5-55--|
B|55-3--55-3--77-5--77-5-55--|
G|---------------------------|
D|---------------------------|
A|---------------------------|
E|---------------------------|
2X

(I'm sorry but I can't figure out the next solo part, so I came up with the bass line..)

e|-------------|
B|-------------|
G|-------------|
D|-------------|
A|-------------|
E|6\3/6\3/6\3--| 2x


e|0-0-3---------------------------------------------------------------------------|
B|0-3-3---------------------------------------------------------------------------|
G|--------------------------------------------------------------------------------|
D|--------------------------------------------------------------------------------|
A|--------------------------------------------------------------------------------|
E|--------------------------------------------------------------------------------|8x

Aw' c'mon x13


e|3-----------------------------------------------------------------------------|
B|3-----------------------------------------------------------------------------|
G|4-----------------------------------------------------------------------------|
D|------------------------------------------------------------------------------|
A|------------------------------------------------------------------------------|
E|------------------------------------------------------------------------------|

I'm sorry for not being so accurate(this is my first tab..) but thanks for even looking at it! :D
Tap to rate this tab
 
# A B C D E F G H I J K L M N O P Q R S T U V W X Y Z