Song name
# A B C D E F G H I J K L M N O P Q R S T U V W X Y Z

The Sore Losers - Juvenile Heart Attack tab

-----------------------------------------------------------------------------
		     Juvenile Heart Attack - The Sore Losers
-----------------------------------------------------------------------------
Tabbed by: Sebastian Van Hyfte
Email: CD_VH@hotmail.com

Tuning: Normal


Verse 1:
e|---------------------------------------------------------------------------|
B|---------------------------------------------------------------------------|
G|--------------------------5---5---5-7~----------5---5---7~-12~-14~---------|
D|------------------------7---7---7-------------7---7---7--------------------|
A|--0-3-0-3-0-3-5---x4---------------------x3--------------------------------|
E|---------------------------------------------------------------------------|

Chorus:

Chords: Dm  F  C  Dm

Verse 2:
e|---------------------------------------------------------------------------|
B|---------------------------------------------------------------------------|
G|--------------------------5---5---5-7~----------5---5---7~-12~-14~---------|
D|------------------------7---7---7-------------7---7---7--------------------|
A|--0-3-0-3-0-3-5---x4---------------------x3--------------------------------|
E|---------------------------------------------------------------------------|

Chorus:

Chords: Dm  F  C  Dm

Bridge:
e|---------------------------------------------------------------------------|
B|--15-15-13-----------------------------------------------------------------|
G|-----------14-11---x6------------------------------------------------------|
D|---------------------------------------------------------------------------|
A|---------------------------------------------------------------------------|
E|---------------------------------------------------------------------------|

Pre-solo:
e|---------------------------------------------------------------------------|
B|---------------------------------------------------------------------------|
G|---0-0-2/3/2-0-2/7-7-0-10-10-10-0-2/3-0-0----------------------------------|
D|---0-0-2/3/2-0-2/7-7-0-10-10-10-0-2/3-0-0-----x4---------------------------|
A|---------------------------------------------------------------------------|
E|---------------------------------------------------------------------------|

Solo-Solo-Solo-Solo

Verse 1:
e|---------------------------------------------------------------------------|
B|---------------------------------------------------------------------------|
G|---------5---5---5-7~----------5---5---7~-12~-14~--------------------------|
D|-------7---7---7-------------7---7---7-------------------------------------|
A|-----------------------x3--------------------------------------------------|
E|---------------------------------------------------------------------------|

Chorus:

Chords: Dm F C Dm



************************************

| /   slide up
| \   slide down
| h   hammer-on
| p   pull-off
| ~   vibrato
| +   harmonic
| x   Mute note
| b   Bend
| pb  Pre-bend
| br  Bend release
| pbr Pre-bend release
| brb Bend release bend

************************************
Tap to rate this tab
# A B C D E F G H I J K L M N O P Q R S T U V W X Y Z