Song name
# A B C D E F G H I J K L M N O P Q R S T U V W X Y Z

The Sorrow - Knights Of Doom tab

==============================================================================l
Hello every body.
I hope I'm right...
Maybe sometimes the Rythm isn't corret. If you had any corrections, please send me

Und wenn do des leasa kannsch, denn schrieb mar bitte a E-Mail :)

The Sorrow ROCKZZZZ!!!

greetz

-------------------------------------------------------------------------------
			     knights of doom - The Sorrow
-------------------------------------------------------------------------------
Tabbed by:commonod
Email:wolfi.11@hotmail.com

Tuning: Dropped C (C,G,C,F,A,D)


Intro        6x
|-------------------------------------------------------------|
|-------------------------------------------------------------|
|-------------------------------------------------------------|
|-------------------------------------------------------------|
|--4h5--0-0--4h5--0-0--4h5--0--4h5--0-0--4h5--0-0--4h5--0-----|
|-------------------------------------------------------------|

then
|-------------------------------------------------------------|
|-------------------------------------------------------------|
|-------------------------------------------------------------|
|-------------------------------------------------------------|
|--8h10--0-0--8h10--0-0-8h10-0--8h10--0-0--8h10--0-0-8h10-0---|
|-------------------------------------------------------------|

|-------------------------------------------------------------|
|-------------------------------------------------------------|
|-------------------------------------------------------------|
|-------------------------------------------------------------|
|--8h10--0-0--8h10--0-0-8h10-0--8h10--0-0--8h10--0-0-8h10-0---|
|-------------------------------------------------------------|

|----------------------------------------------------------------------|
|----------------------------------------------------------------------|
|----------------------------------------------------------------------|
|----------------------------------------------------------------------|
|--10h12--0-0--10h12--0-0-10h12-0--12h13--0-0-12h13--0-0--12h13-0------|
|----------------------------------------------------------------------|


Verse:
|-----------------------------------------------------------------|
|-----------------------------------------------------------------|
|-----------------------------------------------------------------|
|--5p3--3p2--0-6-5-3-5--5p3--3p2--0-6-5-3-5--5p3--3p2--0-6-5-3-5--|
|--5p3--3p2--0-6-5-3-5--5p3--3p2--0-6-5-3-5--5p3--3p2--0-6-5-3-5--|
|--5p3--3p2--0-6-5-3-5--5p3--3p2--0-6-5-3-5--5p3--3p2--0-6-5-3-5--|

|------------------------------------|
|----------------3h4h5--3-2-1-0------|
|-------------------------------1p0--|
|--5p3--3p2--0-0---------------------|
|--5p3--3p2--0-0---------------------|
|--5p3--3p2--0-0---------------------|

|-----------------------------------------------------------------|
|-----------------------------------------------------------------|
|-----------------------------------------------------------------|
|--5p3--3p2--0-6-5-3-5--5p3--3p2--0-6-5-3-5--5p3--3p2--0-6-5-3-5--|
|--5p3--3p2--0-6-5-3-5--5p3--3p2--0-6-5-3-5--5p3--3p2--0-6-5-3-5--|
|--5p3--3p2--0-6-5-3-5--5p3--3p2--0-6-5-3-5--5p3--3p2--0-6-5-3-5--|

|---------------------------------------------------------------------------|
|----------------3h4h5--3-2-1-0------------------------3h4h5--3-2-1-0-------|
|-------------------------------1p0----2~---3~----5~-------------------1p0--|
|--5p3--3p2--0-0------------------------------------------------------------|
|--5p3--3p2--0-0------------------------------------------------------------|
|--5p3--3p2--0-0------------------------------------------------------------|


Chorus Riff 1
|---------------------------------------------------------|
|-------------------------------3-4-5^--4-3---------------|
|---------------------------------------------------------|
|-0-0-0-0---0-0-0-0---0-0-0-0-----------------------------|
|-0-0-0-0---0-0-0-0---0-0-0-0-----------------------------|
|-0-0-0-0---0-0-0-0---0-0-0-0-----------------------------|

 Knights     of         Doom

|---------------------------------------------------------|
|-------------------------------1-3-1^--0-----------------|
|-----------------------------------------2---------------|
|-0-0-0-0---0-0-0-0---0-0-0-0-----------------------------|
|-0-0-0-0---0-0-0-0---0-0-0-0-----------------------------|
|-0-0-0-0---0-0-0-0---0-0-0-0-----------------------------|

  Blades      cut      deeep

|---------------------------------------------------------|
|-------------------------------3-4-5^--4-3---------------|
|---------------------------------------------------------|
|-0-0-0-0---0-0-0-0---0-0-0-0-----------------------------|
|-0-0-0-0---0-0-0-0---0-0-0-0-----------------------------|
|-0-0-0-0---0-0-0-0---0-0-0-0-----------------------------|

 Knights      of       Dooom

|---------------------------------------------------------|
|-------------------------------1-3-1^--0-----------------|
|-----------------------------------------2---------------|
|-0-0-0-0---0-0-0-0---0-0-0-0-----------------------------|
|-0-0-0-0---0-0-0-0---0-0-0-0-----------------------------|
|-0-0-0-0---0-0-0-0---0-0-0-0-----------------------------|

   At         the     Gates

Chorus Riff 2
|---------------------------------------------------------------------------|
|----5-------5---------5-----6--5---3----5-------5---------5-----6--5--3----|
|-----2--2-----2--2------2----2---2--2----2--2-----2--2------2----2---2--2--|
|---------------------------------------------------------------------------|
|---------------------------------------------------------------------------|
|---------------------------------------------------------------------------|
|P.M.  . .      .  .      .    .   .  .   .  .     .  .      .    .   .  .  | |          
                                                                |
|                         Through the night...                              |
|---------------------------------------------------------------------------|
|---------------------------------------------------------------------------|
|---------------------------------------------------------------------------|
|--------------8---------------6----------------9---------------------------|
|--------------8---------------6----------------9---------------------------|
|--------------8---------------6----------------9---------------------------|

D.C. (Da Capo)


| ^  bend
| /  slide up
| \  slide down
| h  hammer-on
| p  pull-off
| ~  vibrato
| +  harmonic
| x  Mute note
===============================================================================
Tap to rate this tab
# A B C D E F G H I J K L M N O P Q R S T U V W X Y Z