Song name
# A B C D E F G H I J K L M N O P Q R S T U V W X Y Z

The Sorrow - Lost Chapters tab

-------------------------------------------------------------------------------
                              Lost Chapters - The Sorrow
-------------------------------------------------------------------------------

Tuning: Dropped Bb/A# Bb F Bb Eb G C
Tabbed by: Maxi Niessl
E-mail: themaexmon@gmx.de (ask me something if you have questions about my tabs)


Intro:

Matze (add slightly grunge):

    LET RING  - - - - - - - - - - - - - - - - - - - - - - - - - - - - - 
C ||---------------------------------|---------------------------------|
G ||---------------------------------|---------------------------------|
Eb||---------------------------------|---------------------------------|
Bb||---------3-----------------------|---------2-----------------------|\
F ||--/5---5---5---------------------|--/3---3---3---------------------| \
Bb||-0---0-------0-0-0-0-0-0-0-0-0-0-|-0---0-------0-0-0-0-0-0-0-0-0-0-|  \
    - - - - - - - - - - - - - - - - - - - - - - - - - - - - - - - - - -    \ 3x
C ||---------------------------------|---------------------------------|   /
G ||---------------------------------|---------------------------------|  /
Eb||---------------------------------|---------------------------------| /
Bb||---------3-----------------------|---------------------------------|/
F ||--/5---5---5---------------------|-------------------5-------------|
Bb||-0---0-------0-0-0-0-0-0-0-0-0-0-|/5-5-5/8-8-8/3-3-3---3p0-2br-----|

Andi (one tact after Matze begins playin')

    LET RING  - - - - - - - - - - - - - - - - - - - - - - - - - - - - -
C ||---------------------------------|---------------------------------|
G ||---------6-------------6---------|---------5---------------5-----8-|
Eb||-------7---7---------------7-----|-------7---7-----------7---7-----|
Bb||-----7-------7-------7-------7---|-----7-------7-------7-------7---|\
F ||--/5-----------5---5-----------5-|---5-----------5---5-------------| \
Bb||-0---------------0---------------|-0---------------0---------------|  \
    LET RING  - - - - - - - - - - - - - - - - - - - - - - - - - - - - -    \ 2x
C ||---------------------------------|---------------------------------|   /
G ||---------6-------------6---------|---------5---------------5-------|  /
Eb||-------7---7---------------7-----|-------7---7-----------7---7-----| /
Bb||-----7-------7-------7-------7---|-----7-------7-------7-------7---|/
F ||--/5-----------5---5-----------5-|---5-----------5---5-----------5-|
Bb||-0---------------0---------------|-0---------------0---------------|

Verse:

Matze & Andi:

    PM   PM|     PM - - - - |  PM- -| PM   PM-|    PM - - - - -| PM- -|
C ||---------------------------------|---------------------------------|
G ||---------------------------------|---------------------------------|
Eb||---------------------------------|---------------------------------|
Bb||---------3-----------------------|---------2-----------------------|\
F ||---5-------5---------------------|---3-------3---------------------| \
Bb||-0---0-0-----0-0-0-0-0-0-0-0-0-0-|-0---0-0-----0-0-0-0-0-0-0-0-0-0-|  \
    PM   PM-     PM - - - - -  PM- -                                       \ 2x
C ||---------------------------------|---------------------------------|   /
G ||---------------------------------|---------------------------------|  /
Eb||---------------------------------|---------------------------------| /
Bb||---------3-----------------------|---------------------------------|/
F ||---5-------5---------------------|-------------------5-------------|
Bb||-0---0-0-----0-0-0-0-0-0-0-0-0-0-|/5-5-5/8-8-8/3-3-3---3p0-2br-----|


Pre-Chorus:

Matze & Andi:
            PM|        PM-----|        PM        PM-----|                                     
C ||--------------------------|-------------------------|
G ||--------------------------|-------------------------|
Eb||--------------------------|-------------------------| x2
Bb||--------------------------|-------------------------|
F ||-1--1---1-1-1--1---1-1-1-1|-1--1---1-1-1--1--1-1-1-1|
Bb||-1--1---1-1-1--1---1-1-1-1|-1--1---1-1-1--1--1-1-1-1|

Chorus:

Matze:
            PM|        PM----|         PM        PM-----                                     
C ||--------------------------|-------------------------|
G ||--------------------------|-------------------------|
Eb||--------------------------|-------------------------| x2
Bb||--------------------------|-------------------------|
F ||-0--0---0-0-0--0---0-0-0-0|-0--0---0-0-0--0--0-0-0-0|
Bb||-0--0---0-0-0--0---0-0-0-0|-0--0---0-0-0--0--0-0-0-0|

Andi (clean):

C ||---------------|-------------------|
G ||-----6-----6---|-----6-----5-------|
Eb||-------------7-|---------6---6-----| x2
Bb||---7-----7-----|---7-----------(7)-|
F ||-5-----5-------|-5-----------------|
Bb||---------------|-------0-----------|

repeat Verse, but Andi will play te harmonics after you played it once:


    PM   PM|     PM - - - - |  PM- -| PM   PM-|    PM - - - - -| PM- -|
C ||---------------------------------|---------------------------------|
G ||---------------------------------|---------------------------------|
Eb||---------2-----------------------|---------0-----------------------|
Bb||---3-------3---------------------|---2-------2---------------------|
F ||---------------------------------|---------------------------------|
Bb||-0---0-0-----0-0-0-0-0-0-0-0-0-0-|-0---0-0-----0-0-0-0-0-0-0-0-0-0-|
    PM   PM-     PM - - - - -  PM- -                                    
C ||---------------------------------|---------------------------------|
G ||---------------------------------|---------------------------------|
Eb||---------2-----------------------|---------------------------------|
Bb||---3-------3---------------------|---------------------------------|
F ||---------------------------------|-------------------5-------------|
Bb||-0---0-0-----0-0-0-0-0-0-0-0-0-0-|/5-5-5/8-8-8/3-3-3---3p0-2br-----|

repeat Pre-Chorus

repeat Chorus, but ONLY PALMUTED!

Interlude:

Matze:
                                                                   A.H.
C ||---------------------------------|---------------------------------|
G ||---------------------------------|---------------------------------|
Eb||---------------------------------|---------------------------------| x2
Bb||---------------------------------|---------------------------------|
F ||---------------------------------|---------------------------------|
Bb||/5-5-5/4-4-4/0-0-0-1-1-0-0-3-3-0-|/5-5-5/4-4-4/0-0-0-1-1-0-0-3-3~~~|

Andi:

C ||-10----10----10----10----10------|-10----10----10----10----10------|
G ||-13b15-13b15-13b15-13b15-13b15---|-13b15-13b15-13b15-13b15-13b15---|
Eb||---------------------------------|---------------------------------| x2
Bb||---------------------------------|---------------------------------|
F ||---------------------------------|---------------------------------|
Bb||---------------------------------|---------------------------------|

Interlude II:

Matze:
       PM|   PM|   PM|     PM|     PM|   PM|   PM|   PM|     PM|     PM|   
C ||---------------------------------|---------------------------------|
G ||---------------------------------|---------------------------------|
Eb||---------------------------------|---------------------------------|
Bb||---------------------------------|---------------------------------|
F ||-5-----4-----0-----1-1-----3-3---|-5-----4-----0-----1-1-----3-3---|
Bb||/5-5-5/4-4-4/0-0-0-1-1-0-0-3-3-0-|/5-5-5/4-4-4/0-0-0-1-1-0-0-3-3-0-|

       PM|   PM|   PM|     PM|     PM| PM - - - - - - - - - - - - - - -|   
C ||---------------------------------|---------------------------------|
G ||---------------------------------|---------------------------------|
Eb||---------------------------------|---------------------------------|
Bb||---------------------------------|---------------------------------|
F ||-5-----4-----0-----1-1-----3-3---|-5-5-5-5-5-5-5-5-5-5-5-5-5-5-5-5-|
Bb||/5-5-5/4-4-4/0-0-0-1-1-0-0-3-3-0-|/5-5-5-5-5-5-5-5-5-5-5-5-5-5-5-5-|

Andi:

C ||---------------------------------|---------------------------------|
G ||-------------------6-6-----8-8---|-------------------6-6-----8-8---|
Eb||-7-7-7-7-7-7-7-7-7-7-7-7-7-7-7-7-|-7-7-7-7-7-7-7-7-7-7-7-7-7-7-7-7-|
Bb||---------------------------------|---------------------------------|
F ||---------------------------------|---------------------------------|
Bb||---------------------------------|---------------------------------|


C ||---------------------------------|---------------------------------|
G ||-------------------6-6-----8-8---|-------------------------------4-|
Eb||-7-7-7-7-7-7-7-7-7-7-7-7-7-7-7-7-|-7-7-7-7-7-7-7-7-7-7-7-7-7-7-7-7-|
Bb||---------------------------------|---------------------------------|
F ||---------------------------------|---------------------------------|
Bb||---------------------------------|---------------------------------|


Outro:

Andi (clean):

C ||---------------|-------------------|
G ||-----6-----6---|-----6-----5-------|
Eb||-------------7-|---------6---6-----| x4
Bb||---7-----7-----|---7-----------(7)-|
F ||-5-----5-------|-5-----------------|
Bb||---------------|-------0-----------|

C ||---------------|-------------------|
G ||-----6-----6---|-----6-----5-------|
Eb||-------------7-|---------6---6-----| x2 (Slowly fading out)
Bb||---7-----7-----|---7-----------(7)-|
F ||-5-----5-------|-5-----------------|
Bb||---------------|-------0-----------|

Please rate the tab if you liked it and have a UG-account :)
Tap to rate this tab
# A B C D E F G H I J K L M N O P Q R S T U V W X Y Z