Song name
# A B C D E F G H I J K L M N O P Q R S T U V W X Y Z

The Soul Shakers - You Aint My Brother tab

                             You Ain't My Brother
 
                                     by

                               The Soul Shakers


This is a pretty funky tune that no one's heard of. I thought I'd tab it.
http://www.youtube.com/watch?v=4tOnYwxxwKM 

Horn Lead
|---------------------------------------------|
|---------------------------------------------|
|-----------------------10--------------------|
|----------8---------12----12-10-8------8-----|
|-------10---10--------------------10-8---10--|
|-10-12---------------------------------------|

|---------------------------------------------|
|---------------------------------------------|
|-----------------------10--------------------|
|----------8---------12----12-10-8------8-----|
|-------10---10--------------------10-8---10--|
|-10-12---------------------------------------|

|----------------------------|
|----------------------------|
|----------10----9----8---7--|
|----------------------------|
|-------10-------------------|
|-10-12----------------------|

Chords
|-3-----3----3----6--5--4--3---|
|-3-----4----3----6--5--4--3---|
|-3-----5----3----7--6--5--3---|
|-5-----5----5----8--7--6--5---|
|-5-----3----5----8--7--6--5---|
|-3----------3----6--5--4--3---|
  Gm    Cm   Gm   Bb A  G# Gm


It pretty much stays like this for the rest of the song. 
Tap to rate this tab
 
# A B C D E F G H I J K L M N O P Q R S T U V W X Y Z