Song name
# A B C D E F G H I J K L M N O P Q R S T U V W X Y Z

The Sound City Players - A Trick With No Sleeve tab

A Trick With No Sleeve
Artist: Alain Johannes, Dave Grohl, Joshua Homme
Album: Sound City - Reel to Reel
Tuning: Standard

Intro
e|-----------------|
B|----3-----3---3--|
G|----2-----2---2--| x8
D|--0--------------|
A|-----------------|
E|--------3---0----|

Verse
                  x8                x4                x4
e|-----------------|-----------------|-----------------|
B|----3-----3---3--|----6-----6---6--|----8-----8---8--|
G|----2-----2---2--|----5-----5---5--|----7-----7---7--|
D|--0--------------|--0--------------|--0--------------|
A|-----------------|-----------------|-----------------|
E|--------3---0----|--------6---5----|--------8---7----|

                  x4                x4                x4
e|-----------------|-----------------|-----------------|
B|----3-----3---3--|----6-----6---6--|----8-----8---8--|
G|----2-----2---2--|----5-----5---5--|----7-----7---7--|
D|--0--------------|--0--------------|--0--------------|
A|-----------------|-----------------|-----------------|
E|--------3---0----|--------6---5----|--------8---7----|
Tap to rate this tab
# A B C D E F G H I J K L M N O P Q R S T U V W X Y Z