Song name
# A B C D E F G H I J K L M N O P Q R S T U V W X Y Z

The Sound City Players - A Trick With No Sleeve tab

-----------------------------------------------------------------------------
                             A Trick With No Sleeve - The Sound City Players
-----------------------------------------------------------------------------
Tabbed by: Darknis
Tuning: Standard

Great Song. This was tabbed mostly by ear and watching live videos.
Post any corrections in the comments and please rate.

Guitar 1: Alain Johannes Guitar 2 Dave Grohl
Intro

Guitar 1
e|---------|----------|----------|----------|
B|--3~~----|----------|----------|----------|
G|--2~~----|----------|----------|----------|
D|--0~~----|----------|----------|----------|
A|--0~~----|----------|----------|----------|
E|---------|----------|----------|----------|
Guitar 2
e|------------------------|
B|----3---3------3-----3--|
G|----2---2------2-----2--|      x8 
D|-0---(0)----------------|
A|------------------------|
E|-----------3------0-----|

Then:

Guitar 1
e|---------|----------|----------|----------|
B|--3~~----|----------|---3~~----|----------|
G|--2~~----|----------|---2~~----|----------|
D|--0~~----|----------|---0~~----|----------|
A|--0~~----|----------|---0~~----|----------|
E|---------|----------|----------|----------|
Guitar 2
e|------------------------|
B|----3---3------3-----3--|
G|----2---2------2-----2--|      x4 
D|-0---(0)----------------|
A|------------------------|
E|-----------3------0-----|


Verse

Guitar 1
e|---------|----------|----------|----------|
B|--3~~----|----------|----------|----------|
G|--2~~----|----------|----------|----------|
D|--0~~----|----------|----------|----------|
A|--0~~----|----------|----------|----------|
E|---------|----------|----------|----------|
Guitar 2
e|------------------------|
B|----3---3------3-----3--|
G|----2---2------2-----2--|      x8 
D|-0---(0)----------------|
A|------------------------|
E|-----------3------0-----|
 
Guitar 1
e|---------|----------|----------|----------|
B|--6~~----|-----6~~--|---6~~----|---6~~----|
G|--5~~----|-----5~~--|---5~~----|---5~~----|
D|--0~~----|-----0~~--|---0~~----|---0~~----|
A|--0~~----|-----0~~--|---0~~----|---0~~----|
E|---------|----------|----------|----------|
Guitar 2
e|------------------------|
B|----6---6------6-----6--|
G|----5---5------5-----0--|      x4 
D|-0---(0)----------------|
A|------------------------|
E|-----------6------5-----|

Guitar 1
e|---------|----------|----------|----------|
B|--8~~----|-----8~~--|---8~~----|---8~~----|
G|--7~~----|-----7~~--|---7~~----|---7~~----|
D|--0~~----|-----0~~--|---0~~----|---0~~----|
A|--0~~----|-----0~~--|---0~~----|---0~~----|
E|---------|----------|----------|----------|
Guitar 2
e|------------------------|
B|----8---8------8-----8--|
G|----7---7------7-----0--|      x8 
D|-0---(0)----------------|
A|------------------------|
E|-----------8------7-----|

Chorus

Listen to song for strumming patttern.
Guitar 1
e|-2-2-2-0-2-5-0-2--|-2-2-2-2-|-0-0-0-0-3-3-3-3-|--------------|
B|-3-3-3-3-3-3-3-3--|-3-3-3-3-|-1-1-1-1-0-0-0-0-|--------------|
G|-2-2-2-2-2-2-2-2--|-2-2-2-2-|-0-0-0-0-0-0-0-0-|--------------|
D|-0-0-0-0-0-0-0-0--|-0-0-0-0-|-2-2-2-2-0-0-0-0-|-3-3-3-3-3-3--|
A|------------------|---------|-3-3-3-3-2-2-2-2-|-3-3-3-3-3-3--|
E|------------------|---------|---------3-3-3-3-|-1-0-1-0-1-0--|

Guitar 2

e|-------------------------|-----------------|----------------------------|
B|-------------------------|-----------------|----------------------------|
G|--11-11-11--9-9-11/14-9-9|-------11-9------|----------------------------|
D|-------------------------|-10-12------12-9-|-10-10-10-10-12-14-9-9-9-9--|
A|-------------------------|-----------------|----------------------------|
E|-------------------------|-----------------|----------------------------|

Verse 2
Same as Verse 1

Chorus 2
Same as Chorus 1 except the last time it is like this
Guitar 1
e|-2-2-2-0-2-5-0-2--|-2-2-2-2-|-0-0-0-0-3-3-3-3-|
B|-3-3-3-3-3-3-3-3--|-3-3-3-3-|-1-1-1-1-3-3-3-3-|
G|-2-2-2-2-2-2-2-2--|-2-2-2-2-|-0-0-0-0-3-3-3-3-|
D|-0-0-0-0-0-0-0-0--|-0-0-0-0-|-2-2-2-2-5-5-5-5-|
A|------------------|---------|-3-3-3-3-5-5-5-5-|
E|------------------|---------|---------3-3-3-3-|

Guitar 2

e|-------------------------|-----------------|----------------------------|
B|-------------------------|-----------------|----------------------------|
G|--11-11-11--9-9-11/14-9-9|-------11-9------|----------------------------|
D|-------------------------|-10-12------12-9-|-10-10-10-10-12-14--5-5-5-5-|
A|-------------------------|-----------------|----------------------------|
E|-------------------------|-----------------|----------------------------|


Bridge
Guitar 1

Dm                               G     A                          
       Won't you reach into this life      x3
A
And take it.

Guitar 2
e|--------------|-----------|---------------------|----------------------------------|
B|--------------|-----------|---------------------|----------------------------------|
G|--10b12-9b10--|-7b9-9b10--|-4-4-4-4-4-7-7-7-7-7-|-12-12-12-12-12-10-10-10-10-10-9--|
D|--------------|-----------|---------------------|----------------------------------|     x2
A|--------------|-----------|---------------------|----------------------------------|
E|--------------|-----------|---------------------|----------------------------------|  

Last time


e|--------------|-----------|---------------------|----------------------------------|
B|--------------|-----------|---------------------|----------------------------------|
G|--10b12-9b10--|-7b9-9b10--|-4-4-4-4-4-7-7-7-7-7-|-9--9--9--9--9--9--9--9--9--9--9--|
D|--------------|-----------|---------------------|----------------------------------|     
A|--------------|-----------|---------------------|----------------------------------|
E|--------------|-----------|---------------------|----------------------------------|  

Chorus 3
Same as Chorus 2

Post Chorus 3

Guitar 1
Just play Gm

Guitar 2
e|---------------------------------|
B|---------------------------------|
G|-------------------12-12-12-12---|  x3
D|-10-10-10-10-12-14---------------|
A|---------------------------------|
E|---------------------------------|


Outro
Both Guitars
e|----------------------------|
B|-3-3-3-3-3-3-3-3-3-3-3-3-3--|
G|-2-2-2-2-2-2-2-2-2-2-2-2-2--| x8
D|-0-0-0-0-0-0-0-0-0-0-0-0-0--|  
A|-0-0-0-0-0-0-0-0-0-0-0-0-0--|
E|-----------3-3-3-3-0-0-0-0--|

End on 
D5


Please rate.
Tap to rate this tab
# A B C D E F G H I J K L M N O P Q R S T U V W X Y Z