Song name
# A B C D E F G H I J K L M N O P Q R S T U V W X Y Z

The Sound City Players - Centipede tab

------------------------------------------------------------------------------------
Centipede - Sound City Players (Al Johannes, Dave Grohl, Josh Homme and Chris Goss)
------------------------------------------------------------------------------------
Tabbed by:sonicunderwear and TambergWill
E-mail:jacquesmac95@gmail.com

Intro and other bits borrowed from TambergWill's tab

Tuning:Standard

Intro and Verse:
                                                     x12
e||---------------------------------------------------||
B||o-------------------------------------------------o||
G||---------0---0-----0---0-----0---0-----0-----0-----||
D||-----2h4~~-----2h4~~-----2h4~~-----2/4---4/5-------||
A||o----------3~~-------3~~-------3~~----------------o||
E||---------------------------------------------------||

Chorus:

e|----------------------------------------------|
B|----------------------------------------------|
G|--------0---0-----0---0-----0---0-----0---0---|
D|----------------------------------------------|
A|----0h3---3---0h3---3---0h3---3---0h3---3-----|
E|----------------------------------------------|


Guitar 1
e|------------------------------------------------------------------------------------|
B|------------------------------------------------------------------------------------|
G|-------0---0-----0---0-----0---0-----0---0-----0---0-----0---0-----0---0-----0---0--|
D|------------------------------------------------------------------------------------|
A|---0h6---6---0h6---6---0h5---5---0h5---5---0h3---3---0h3---3---0h3---3---0h3---3----|
E|------------------------------------------------------------------------------------|


Guitar 2
e|------------------------------------------------------------------------------------|
B|-------8---8-----8---8-----6---6-----6---6-----5---5-----5---5-----5---5-----5-3----|
G|-------8---8-----8---8-----7---7-----7---7-----5---5-----5---5-----5---5---------5--|
D|------------------------------------------------------------------------------------|
A|-----6---------6---------5---------5---------3---------3--------3----------3--------|
E|------------------------------------------------------------------------------------|


Guitar 1
e|------------------------------------------------------------------------------------|
B|------------------------------------------------------------------------------------|
G|-------0---0-----0---0-----0---0-----0---0-----0---0-----0---0-----0---0-----0---0--|
D|------------------------------------------------------------------------------------|
A|-------------------------------------------0h3---3---0h3---3---0h3---3---0h3---3----|
E|---5h6---6---5h6---6---3h5---5---3h5---5--------------------------------------------|


Guitar 2
e|------------------------------------------------------------------------------------|
B|---------------------------------------------6-------5/3----------------------------|
G|---7b8~~~~~~~------7b8b7--------------------------------5---------------------------|
D|------------------------------------------------------------------------------------|
A|------------------------------------------------------------------------------------|
E|------------------------------------------------------------------------------------|


Verse 2

Guitar 1
                                                    x12
e||-------------------------------------------------||
B||o-----------------------------------------------o||
G||-------0---0-----0---0-----0---0-----0-----0-----||
D||---2h4~~-----2h4~~-----2h4~~-----2/4---4/5-------||
A||o--------3~~-------3~~-------3~~----------------o||
E||-------------------------------------------------||

Guitar 2    These are played over the main riff, not super accurate but it seems to be 
improvised anyway
e|-------------------------------------------------|
B|-------------------------------------------------|
G|-------0-2p0-------------------------------------|
D|---2h4-------4/2~~~~~~~~-------------------------|
A|-------------------------------------------------|
E|-------------------------------------------------|

Guitar 2
e|-------------------------------------------------|
B|-------------------------------------------------|
G|-------------------------------------------------|
D|------0h1-3p1p0----------------------------------|
A|-----3---------3~~~~~~~~---/5\3~~~~~~~~~~--------|
E|-------------------------------------------------|

Guitar 2
e|-------------------------------------------------|
B|-------------------------------------------------|
G|-------0-2p0-------------------------------------|
D|---2h4-------4/2~~~~~~~~-----------p0h2~~~~~~~~--|
A|-------------------------------------------------|
E|-------------------------------------------------|

Guitar 2
e|-------------------------------------------------|
B|-------------------------------------------------|
G|----------------------------0~~~~~~~~~~----------|
D|-----------------------4-------------------------|
A|-------------------------------------------------|
E|-------------------------------------------------|


Chorus:

e|----------------------------------------------|
B|----------------------------------------------|
G|--------0---0-----0---0-----0---0-----0---0---|
D|----------------------------------------------|
A|----0h3---3---0h3---3---0h3---3---0h3---3-----|
E|----------------------------------------------|

Guitar 1
e||------------------------------------------------------------------------------------|
B||o-----------------------------------------------------------------------------------|
G||-------0---0-----0---0-----0---0-----0---0-----0---0-----0---0-----0---0-----0---0--|
D||------------------------------------------------------------------------------------|
A||o--0h6---6---0h6---6---0h5---5---0h5---5---0h3---3---0h3---3---0h3---3---0h3---3----|
E||------------------------------------------------------------------------------------|

Guitar 2 (almost the same as last time, small variations aren't tabbed here)
e||------------------------------------------------------------------------------------|
B||o------8---8-----8---8-----6---6-----6---6-----5---5-----5---5-----5---5-----5-3----|
G||-------8---8-----8---8-----7---7-----7---7-----5---5-----5---5-----5---5---------5--|
D||------------------------------------------------------------------------------------|
A||o----6---------6---------5---------5---------3---------3--------3----------3--------|
E||------------------------------------------------------------------------------------|

Guitar 1                                                                              x2
e|------------------------------------------------------------------------------------||
B|-----------------------------------------------------------------------------------o||
G|-------0---0-----0---0-----0---0-----0---0-----0---0-----0---0-----0---0-----0---0--||
D|------------------------------------------------------------------------------------||
A|-------------------------------------------0h3---3---0h3---3---0h3---3---0h3---3---o||
E|---5h6---6---5h6---6---3h5---5---3h5---5--------------------------------------------||

Guitar 2
e|------------------------------------------------------------------------------------||
B|---------------------------------------------6-------5/3---------------------------o||
G|---7b8~~~~~~~------7b8b7--------------------------------5---------------------------||
D|------------------------------------------------------------------------------------||
A|-----------------------------------------------------------------------------------o||
E|------------------------------------------------------------------------------------||


Interlude:

e|-------------------------------------------------------------------------------------|
B|-------------------------------------------------------------------------------------|
G|-------0---0-----0---0-----0---0-----0---0-----0---0-----0---0-----0---0-----0---0---|
D|-------------------------------------------------------------------------------------|
A|---0h7---7---0h7---7---0h7---7---0h7---7---0h6---6---0h6---6---0h6---6---0h6---6-----|
E|-------------------------------------------------------------------------------------|

e|-------------------------------------------------------------------------------------|
B|-------------------------------------------------------------------------------------|
G|-------0---0-----0---0-----0---0-----0---0-----0---0-----0---0-----0---0-----0---0---|
D|-------------------------------------------------------------------------------------|
A|-------------------------------------------------------------------------------------|
E|---3/5---5---3/5---5---3/5---5---3/5---5---0h1---1---0h1---1---0h1---1---0h1---1-----|

e|-------------------------------------------------------------------------------------|
B|-------------------------------------------------------------------------------------|
G|-------0---0-----0---0-----0---0-----0---0-----0---0-----0---0-----0---0-----0---0---|
D|-------------------------------------------------------------------------------------|
A|---0h7---7---0h7---7---0h7---7---0h7---7---0h6---6---0h6---6---0h6---6---0h6---6-----|
E|-------------------------------------------------------------------------------------|

e|-------------------------------------------------------------------------------------|
B|-------------------------------------------------------------------------------------|
G|-------0---0-----0---0-----0---0-----0---0-----0---0-----0---0-----0---0-----0---0---|
D|-------------------------------------------------------------------------------------|
A|---0h8---8---0h8---8---0h8---8---0h8---8---0h8---8---0h8---8---0h8---8---0h8---8-----|
E|-------------------------------------------------------------------------------------|

                              x8
e||---------------------------||
B||o-------------------------o||
G||-------0-----0-----0---0---||
D||---------------------------||
A||o--5/6---6/8---0h3---3----o||
E||---------------------------||


Then it gets loud, a few guitars are playing so I'm not entirely sure whats going on


Dist. guitar 1
e|--------------------------------------------------------------------------------------|
B|--------------------------------------------------------------------------------------|
G|--8-----------------------------------------------------------------------------------|
D|--8-----------------------------------------------------------------------------------|
A|--10----------------------------------------------------------------------------------|
E|--------------------------------------------------------------------------------------|


Dist. guitar 2 (intro riff)
e|--------------------------------------------------------------------------------------|
B|--------------------------------------------------------------------------------------|
G|------0---0-----0---0-----0---0-----0-----0-----0---0-----0---0-----0---0-----0-----0-|
D|--2h4-------2h4-------2h4-------2/4---4/5---2h4-------2h4-------2h4-------2/4---4/5---|
A|--------3---------3---------3---------------------3---------3---------3---------------|
E|--------------------------------------------------------------------------------------|


Dist. guitar 1
e|--------------------------------------------------------------------------------------|
B|--------------------------------------------------------------------------------------|
G|--8-----------------------------------------8-----8---------8---------8---------------|
D|--8-----------------------------------------8-----8---------8---------8---------------|
A|--10----------------------------------------10----10--------10--------10--------------|
E|--------------------------------------------------------------------------------------|


Dist. guitar 2 (intro riff)
e|--------------------------------------------------------------------------------------|
B|--------------------------------------------------------------------------------------|
G|------0---0-----0---0-----0---0-----0-----0-----0---0-----0---0-----0---0-----0-----0-|
D|--2h4-------2h4-------2h4-------2/4---4/5---2h4-------2h4-------2h4-------2/4---4/5---|
A|--------3---------3---------3---------------------3---------3---------3---------------|
E|--------------------------------------------------------------------------------------|


Dist. guitar 1 (listen carefully for rhythm)                 x12
e||----------------------------------------------------------||
B||o--------------------------------------------------------o||
G||--9-11-11-12---9-11-11-12---9-11-11-12---9-11-11-141414---||
D||--9-11-11-12---9-11-11-12---9-11-11-12---9-11-11-141414---||
A||o-7/9--9--10---7/9--9--10---7/9--9--10---7/9--9--121212--o||
E||----------------------------------------------------------||


Dist. guitar 2 (same intro riff formatted differently to be in time with guitar 1)
                                                             x12
e||----------------------------------------------------------||
B||o--------------------------------------------------------o||
G||-------0-----0------0-----0------0-----0------0--------0--||
D||--2h4----------2h4----------2h4----------2/4------4/5-----||
A||o----------3-----------3-------------3-------------------o||
E||----------------------------------------------------------||

All guitars

e||--------------------------------------------------------|
B||o-------------------------------------------------------|
G||--/5-5--/5-5--/5-5--/5-5--/8-8-8-8--/7-7-7-7--/5-5-5-5--|
D||--/5-5--/5-5--/5-5--/5-5--/8-8-8-8--/7-7-7-7--/5-5-5-5--|
A||o-/3-3--/3-3--/3-3--/3-3--/6-6-6-6--/5-5-5-5--/3-3-3-3--|
E||--------------------------------------------------------|

e|--------------------------------------------------||
B|-------------------------------------------------o||
G|--/5-5-5-5--3-3-3-3--2-2-2/8--/5-5-5-5-/5-5-5-5---||
D|--/5-5-5-5--3-3-3-3--2-2-2/8--/5-5-5-5-/5-5-5-5---||
A|--/3-3-3-3--1-1-1-1--0-0-0/6--/3-3-3-3-/3-3-3-3--o||
E|--------------------------------------------------||


Acoustic guitar
                                                      x2
e||---------------------------------------------------||
B||o-------------------------------------------------o||
G||---------0---0-----0---0-----0---0-----0-----0-----||
D||-----2h4~~-----2h4~~-----2h4~~-----2/4---4/5-------||
A||o----------3~~-------3~~-------3~~----------------o||
E||---------------------------------------------------||


All guitars
                                                             x4
e||----------------------------------------------------------||
B||o--------------------------------------------------------o||
G||--9-11-11-12---9-11-11-12---9-11-11-12---9-11-11-141414---||
D||--9-11-11-12---9-11-11-12---9-11-11-12---9-11-11-141414---||
A||o-7/9--9--10---7/9--9--10---7/9--9--10---7/9--9--121212--o||
E||----------------------------------------------------------||


************************************

| /   slide up
| \   slide down
| h   hammer-on
| p   pull off
| ~   vibrato/ring
************************************
Tap to rate this tab
 
# A B C D E F G H I J K L M N O P Q R S T U V W X Y Z