Song name
# A B C D E F G H I J K L M N O P Q R S T U V W X Y Z

The Sound Of Animals Fighting - Act Iv - You Dont Need A Witness tab

-------------------------------------------------------------------------------
Act IV: You Don't Need a Witness - The Sound of Animals Fighting
-------------------------------------------------------------------------------
Tabbed by: rottenkidmikey
Tuning: Regular EADGBE

I will not take any credit for the intro/chorus of this tab, since the intro and chorus
are the same as Act I: Chasing Suns, so the credit goes to Zorrobudday
Anything after the intro/chorus is my work, and it may take me a while, so bear with

Intro
e|---------------------------------------------------------------------------|
B|---------------------------------------------------------------------------|
G|------0-------------0-------------3----------------------------------------|
D|------------------------------------------8-8-8-10-10-10-------------------|
A|-0h3h6--3-3-3-0h3h6---3-3-3-0h3h6---3-3-3-6-6-6-8--8--8--------------------|
E|------------------------------------------4-4-4-6--6--6--------------------|

e|---------------------------------------------------------------------------|
B|---------------------------------------------------------------------------|
G|-------0-------------0------------3----------------------------------------|
D|-------------------------------------------8-8-8-5-5-5---------------------|
A|-0h3h6---3-3-3-0h3h6--3-3-3-0h3h6---3-3-3--6-6-6-3-3-3---------------------|
E|-------------------------------------------4-4-4-1-1-1---------------------|

Intro cont...
e|---------------------------------------------------------------------------|
B|---------------------------------------------------------------------------|
G|---12--12-12----11-11-11--12-12-12--11-11-x-11--x-11-----------------------|
D|-2--x--x--x--2--x--x--x--2-x--x--x--x--x--x--x--x--x-----------------------|
A|-2--10-10-10-2--9--9--9--2-10-10-10-9--9--x--9--x--9-----------------------|
E|-0-----------0-----------0-------------------------------------------------|

Tap to rate this tab
# A B C D E F G H I J K L M N O P Q R S T U V W X Y Z