Song name
# A B C D E F G H I J K L M N O P Q R S T U V W X Y Z

The Sound Of Reason - Palestine tab

This is played with Standard Tuning, and I'm 98% sure this is the correct version.
It's very easy to play, but sounds fantastic!

Intro/Verse/Chorus
E|----------------------------------------------------|
B|-------0------------0------------0------------0-----|
G|----0----0-------0----0-------0----0-------0----0---|
D|---5--5----5----5--5----5----5--5----5----5--5----5-|
A|-3------------0-------------------------------------|
E|---------------------------0------------3-----------|

Play the tab a lot of times until the end of the song where the strumming begins:

C Am Em G
C Am Em G 
C Am Em G 
C Am Em G
(Could be other versions of these chords, like C7, but this is great aswell)

play this a couple of times and then it's somewhat of a solo which goes like this:

Solo:
E|-12--10--8--7--7--------7-8-7------------------7----|
B|-------------------------------10-8---8---7-10------|
G|-------------------------------------------------9--|
D|----------------------------------------------------|
A|----------------------------------------------------|
E|----------------------------------------------------|

E|-----------------------------------|
B|------------7-8-7------------------|
G|-7------7/9-------9-9--7----7-7/9--|
D|-----------------------------------|
A|-----------------------------------|
E|-----------------------------------|

E|---------------------------------------------|
B|-----------7-8-7-----------------------------|
G|-------7/9-------9-9--7----7-7/9--7-7-7/9----|
D|---------------------------------------------|
A|---------------------------------------------|
E|---------------------------------------------|

After this part, you rap it all up with the first tab:

Outro:
E|----------------------------------------------------|
B|-------0------------0------------0------------0-----|
G|----0----0-------0----0-------0----0-------0----0---|
D|---5--5----5----5--5----5----5--5----5----5--5----5-|
A|-3------------0-------------------------------------|
E|---------------------------0------------3-----------|


Lyrics:
Close my eyes tonight
My conscience by my side
It’s hard to live this life where truth begins with lies
So I won’t sleep
I will stay awake 'cause if I dream then they’ll take their claim
Oh I try
Oh I try to fight to stay awake tonight
Palestine
Palestine
Palestine
Always on my mind
Mmm
Mmm
Mmm
Truth is where desire ends
A meaning to an end
I search myself all the time to change what’s in my mind
So I won’t sleep
I will stay awake 'cause if I dream then they’ll take their claim
Oh I try
Oh I try to fight to stay awake tonight
Palestine
Palestine
Palestine
Always on my mind
I can’t find peace 'cause it’s hard to release what we’ve done
What we could be if we’d only see what we’ve become
It’s unbelievable
It’s undeniable
Oh
Oh
Oh
Oh
I want free
Won’t sleep
Won’t dream
Won’t eat
Won’t breathe
Won’t give in to what’s building inside of me
Oh
Oh
Oh
Oh
Close my eyes tonight
My conscience by my side


Enjoy :) it's my very first tab so plz give me your comments!

http://www.thesoundofreason.com/
Tap to rate this tab
# A B C D E F G H I J K L M N O P Q R S T U V W X Y Z